Oops, an error
Loading. Please wait.

Mrs Vauxs Gigge Tab

193 views 3 this week
no commentswrite comment
1 2 3 4 5
please rate
add to favorites
launch autoscroll
font size
0
reset
how to read this tab
guitar tuner
Tab Pro tools
  • play this tab
  • loop segment
  • change instrument
  • show fretboard
  • metronome
×
Best way to learn
"Mrs Vauxs Gigge"
Autoscroll
slow
fast
+/-
esc
set tempo
stop
Contributor
                     Title: Gigue (Mrs. Vauxes Gigge)
                     Artist: John Dowland (1563-1626)
                 Transcribed by: Ajay (jataguru@yahoo.com)

  Time Signature: 6/4

e||----------------------0----|--5--------0----3-------------|
B||---------------------------|-----------1----0--------1----|
G||---------------------------|--5--------2-------------2----|
D||---------------------------|----------------2--------3----|
A||---------------------------|--0---------------------------|
E||---------------------------|------------------------------|


--1---------1----0--------------|---------------------------------|
-------3---------1---------1----|--3---------1-----0---------0----|
-------4-------------------2----|-------2----------1------2--1----|
--0----5----0----2---------3----|--0----3-------0--2---------2----|
------------------------3-------|------------3--------------------|
--------------------------------|---------------------------------|


-----------------------0--2--3--0--|--5--0--------0--2--3--1--0-----------|
---------0-------1--3--------------|--------1--------------------3-----0--|
--2---------2----------------------|-----------2--------------------------|
--2--------------------------------|--------------------2-----------3-----|
--0--------------------------------|--0-----------------------------------|
-----------------------------------|--------------------------------------|


--1--0--------------------------------|--------------------------------------|
--------3--1--3--0--1--0--------------|--0--1--3--1--0-----------0-----------|
--------------0-----------2--0-----2--|-----------------2--1--2-----2-----1--|
--0-----------------------------3-----|--0-----------3-----2-----0-----2-----|
--------------------3-----------------|--------------------------------------|
--------------------------------------|--------------------------------------|


------------0--------------0--1--|--3---------------1---------3----|
-----------------2---------------|--1----------1---------3---------|
--2------2------------2----------|-------------2---------4---------|
--2------------------------------|-------0--2--3----0----5---------|
--0------------------------------|--3------------------------------|
---------------------------------|---------------------------------|


--0----1--0-----0------------5--7--|--8--------------0--------------|
--1----------3-----1---------------|------------1--------------3----|
-----------------------------------|--------------------------------|
-----------------------------------|--------------------------------|
--3---------------------3----------|-------3------------------------|
-----------------------------------|----------------------3---------|


-----------------------------0--1--|--3--1--0----------1--0-----0--1--3--|
--1--------------------------------|-----------3--1----------3-----------|
--0--------------------------------|--------------2----------0-----------|
--2----3--2--0--2------------------|--------------3----0-----------------|
--3----------------3----3----------|--3----------------------------------|
-----------------------------------|-------------------------------------|


--0----3--1--0---------------5--7--|--8---------5----3-------5--1----|
----------------3--1---------------|------------6----5----------3----|
-----------------------------------|---------------------------------|
-----------------------------------|---------------------------------|
--3---------------------3----------|-------3-------------------------|
-----------------------------------|----------------------3----------|


--0---------3----0---------0--1--|--3----0---------3----0----5--7--|
--1--------------1---------------|------------1--------------------|
---------------------------------|-------0--------------0----------|
---------------------------------|------------2--------------3-----|
-------3--------------3----------|--3--------------3---------------|
---------------------------------|---------------------------------|


--8--------------0---------1----|--3----0--0--5----0----5----4----|
-------1----3----1--------------|--0---------------1---------0----|
-------2----4-------------------|-------------5-------------------|
------------5--------------0----|--2----------3----3--------------|
--7-------------------3---------|---------------------------------|
--------------------------------|----------------------------0----|


--5-----------------1--3--5----|--0--1--3----0-------------------|
---------------1---------------|------------------1----3----0----|
--6------------2---------------|------------------2---------1----|
--7------------3---------------|-----------------------0----2----|
-------------------------------|------------------0--------------|
--5------------1---------------|--0------------------------------|


-------1h-0-----0------------0--1--|--3--1--0----------3----0----5--7--|
-------------3-----2---------------|-----------3--1--------------------|
--2---------------------2----------|--------0---------------0----------|
--2--------------------------------|--------------2--------------3-----|
--0--------------------------------|--3----------------3---------------|
-----------------------------------|-----------------------------------|


--5--------------0--------0--1-----|--3--------------5--4--5--7--0--5--4--|
-------1----3-------1--3-----------|--------------------------------------|
-------2----4----------------------|--------0-----------------------------|
--2---------5-------------------0--|--2--3-----2--3-----2-----------------|
-----------------0-----------------|--------------------------------------|
-----------------------------------|--------------------------------0-----|


--5---------------------------------|--0--1--3------------------------|
------------------------------------|-------------3----1----3----0----|
-------0----------------------------|------------------2---------1----|
----------3--2--0-------------------|-----------------------0----2----|
--0----------------3--2--0----------|------------------0--------------|
----------------------------3--1----|--0------------------------------|


---------------------------------||
---------------------------------||
--2------------------------------||
-------3--2--0--2----------------||
--0----------------4----0--------||
---------------------------------||


This piece is not very hard to play, but it sounds good. I hope you'll like it.

This Tab created with Guitar Pro.
comments
We did not receive enough feedback on this tab! Please rate:
print report bad tab
1 2 3 4 5
I want to post or [tab]
guest
You may want to rate the tab now too:
select rating
Please do not post tabs as comments. Select "correction" instead!