Oops, an error
Loading. Please wait.

Orlando Sleepeth Tab

version 2
version 2

Whole song

Interactive

245 views 3 this week
no commentswrite comment
1 2 3 4 5
3 more votes to show rating
add to favorites
launch autoscroll
font size
0
reset
how to read this tab
guitar tuner
Autoscroll
slow
fast
+/-
esc
set tempo
stop
Help us to improve Ultimate-Guitar.com Take our survey!
×
Author
E-}---Orlando-Sleepeth-----------------------------|
A-|---Composer:-John-Dowland-----------------------|
D-|---Transcription-by:Christian Liang-------------|
G-|---E-Mail:christian.liang@gmail.com-------------|   
B-|---http://www.chrisliang.com--------------------|
E-|---Enjoy!---------------------------------------|

Grade 2- Intermediate. 

(====) means hold chord to suspended bass.

Play each part twice. AA-BB-CC-DD

Be sure to change the time signatures from 4/4 to 6/4 at PART C and D

[1] Part A (4/4 time signature)  

    D                 A      D                 A      |
|
E|------------0--2-----0----|-------5--3--2-----0----|
B|---3================-2----|-3================-2----|
G|---2================-2----|-------------------2----|
D|---0================------|-0================------|
A|---------------------0----|-------------------0----|
E|--------------------------|------------------------|

D                        D           D

|----------0--2--3--0--2-|------------------------||
|-3=================-----|-3==========-3=========*||
|-2=================-----|-2==========-2=========-||
|-0=================-----|-0==========-0=========-||
|-------------------0----|-----------------------*||
|------------------------|------------------------||  


LH   3           2     2      2     4  3  1     2      3           3  4     2   3           3 
     1                 1                        1      1                        1           1

RH   m        a  a     a      m     a  a  a     a      m        a  a  a  a  a   m           m
     i                 m      p                 m      i                 p      i           i
     p                 i                        i      p                        p           p
                       p                        p

[5] Part B (4/4 time signature)  

     C                 G      C                 G     |
|
E||--------------0----------|-------------0----------|
B||*-1--------3--1-----3----|-1=======-3--------3----|
G||--0==========-------0----|-0-----------------0----|
D||--2==========------------|-------2----------------|
A||*-3==========-3----------|-3-=========-3----------|
E||--------------------3----|-------------------3----|

 Am                       A

|------------------------|------------------------||
|-1-----0-----0----------|-----------------------*||
|-2--------2--------1----|-2==========-2=========-||
|-2-----0-----2======----|-2==========-2=========-||
|-0----------------------|-0==========-0=========*||
|------------------------|------------------------||


LH   1        4  1     4      1     2  4  3     4      1        3  2     1      3           3
     2           3     3      3                 3      3                        2           2
     3                                                 2
RH   a        m  a     a      a     i  a  a     a      a     a  m  a      m     m           m
     m           m     m      m           p     m      m     p     p      i     i           i 
     i           p     p      p                 p      i                  p     p           p
     p                                                 p

[9] Part C (6/4 time signature)                       [11] Part D (6/4 time signature)  

      D                         A           D         |
|
E||----------0--2---2---0----|----------------------|
B||*-3====================-3-|-2----0--2--3-======-*|
G||--2======================-|-2========-=2===2-----|
D||--0======================-|------------0-======--|
A||*-------------------------|-0==================-*|
E||--------------------------|----------------------|

   C                      E            A

||--------------0---0-----|-----------------------||
||*-1-=======3-======-3-1-|-0------0-------------*||
||--0====================-|-1----2------2========-||
||------------------------|-2==========-2========-||
||*-3====================-|-------------0========*||
||------------------------|-0==========-----------||


LH   3          2   2      3   2       2  3   1         1        4        4 1   1    4      3 
     1                         1          1             3                       3           2

RH   m      a   a   a   a  m   m    m  m  m   i         m        m  a   a m m   a    m a    m
     i                         i          i             i                       m           i
     p                         p          p             p                       i           p
                                                                                p
Suggest correction
Give kudos to tab author, rate the tab!
1 2 3 4 5
comments
print report bad tab
guest
You may want to rate the tab now too:
select rating
Wanna post a correction for this tab? Suggest correction