Oops, an error
Loading. Please wait.

The Right Honorable The Lady Cliftons Spirit Tab

348 views 1 this week
no commentswrite comment
1 2 3 4 5
please rate
add to favorites
launch autoscroll
font size
0
reset
how to read this tab
guitar tuner
Tab Pro tools
  • play this tab
  • loop segment
  • change instrument
  • show fretboard
  • metronome
×
Best way to learn
"The Right Honorable The Lady Cliftons Spirit"
Autoscroll
slow
fast
+/-
esc
set tempo
stop
Contributor
The Right Honorable the Lady Clifton's Spirit - John Dowland (1561-1626)
from "Varietie of Lute Lessons" - 1610

from http://membres.lycos.fr/classicalguitar/

TablEdited by Hamilcar

Tuning : E A D F# B E   -   Time Signature: 3/4 

 |       |       |        |       |       |        |       |       |        
|0-----2-3---0---2---3---|5-------5---5-------5---|0-----------0-----------|
|1---------------3-------|------------------------|1---------------3---1---|
|------------------------|------------------------|----------------5---3---|
|------------------------|------------------------|----------------0-------|
|3---------------2-------|0-----------0-----------|3-------3---------------|
|------------------------|------------------------|------------------------|

 |       |       |        |       |       |        |       |       |        
|------------------------|0-----2-3-------2---0---|--------------------0---|
|0-----1-----0-----------|1-----------------------|3-----5-1---0-----------|
|2-------3---2-----------|------------------------|5-------3---2-----------|
|2-------2-----------2---|------------2---0-------|5-----------2-----------|
|--------0---------------|3-------------------3---|------------------------|
|------------0-----------|------------------------|------------------------|

 |       |       |        |       |       |        |       |       |        
|5-------0---2-----------|------------------------|0---0-2-0-2-3-0-2---3---|
|----------------3-------|2-------------0---0-1-3-|--3-------------3-------|
|--------3-----------2---|----0-2-3-2-3---3-------|------------------------|
|------------0-----------|------------------------|------------------------|
|0-------4-------2-------|0-----------------------|3---------------2-------|
|------------------------|------------------------|------------------------|

 |       |       |        |       |       |        |       |       |        
|5-4-5-7-5---5-------5---|0-1-3-1-0---1-0---0-----|------------------------|
|------------------------|----------------3---1---|0-1-3-1---0-------------|
|------------------------|------------------------|------------3---2-------|
|------------------------|----------------0-------|2-------------------2---|
|0-----------0-----------|3-----------------------|--------0---------------|
|------------------------|------------------------|----------------0-------|

 |       |       |        |       |       |        |       |       |        
|0---0-2-3-------2-3-0---|------0-------------0---|5-------------2-----0---|
|--3---------------------|3-1-3---1---0-----------|----------------3-0-----|
|------------------------|1-------3---2-----------|--------------------2---|
|----------0-2---0-------|------------2-----------|------------0-----------|
|3-------------------3---|------------------------|----0-2-4-0-----2-------|
|------------------------|------------------------|------------------------|

 |       |       |        |       |       |        |       |       |        
|------------------------|------------------------|------------------------|
|2---5-3-5-3-2-0---------|3-----1-0---------------|------------0-----------|
|----------------3-------|------------3-----------|1-------3-----------1---|
|------------------------|------------------5-4---|------------------------|
|0-----------------------|----------------5-------|2-------------------3---|
|------------------------|----3-------------------|----3-----------3-------|

 |       |       |        |       |       |        |       |       |        
|--------0---------------|----------------0---2---|3-----------0-----------|
|1-----3---------1---0---|--------0---------------|--------3-----------3---|
|--------------------2---|3-------2---3-----------|--------1-----------1---|
|------------------0-2---|--------2---2-----------|------------------------|
|----0-------3-----------|3---0-------0-----------|--------2-------3---2---|
|------------------------|------------------------|----3-------------------|

 |       |       |        |       |       |        |       |       |        
|--------0---------------|------------0-------2---|3-----5-2---0-----------|
|0-----------3-----1-0---|1-------3---------------|0---5---4---0-----------|
|------------------------|3-----------------------|------------2-----------|
|------------------------|--------------------0---|2-------------------2---|
|--------3---2-----------|----0---2-------3-------|----0---2---------------|
|----3-----------3-------|------------------------|----------------0-------|

 |       |       |        |       |       |        |       |       |        
|------------------------|------------------------|--------0---------------|
|3-----3-1-0-------------|----0-1-3-1-0-1-0-------|1-----3-------3-1---0---|
|------------3-1-0-1-3-0-|1-3---------------3-1---|--------------------2---|
|------------0-----------|------------------------|------------------0-2---|
|------------------------|2-------------------3---|----0-----2-3-----------|
|----3-------------------|----3-------3-----------|------------------------|

 |       |       |        |       |       |        |       |       |        
|--------------------0-2-|3-----2-----0-----0-----|--3-3---0---------------|
|--0-1-3-0-----0-1-3-----|--------3-----------3---|0-----3-----3-----1-0---|
|3-------2---3-----------|--------1-------1-------|------------------------|
|2-------2---------------|------------------------|------------------------|
|3---0-------0-------0---|--------2-----3-------2-|----------3---2---------|
|------------------------|----3-------------------|3---------------3-------|

 |       |       |        |       |       |        |       |       |        
|------------0-------0-2-|3-0-5-3-2-3-0-----------|0-----------2-----------|
|1-----0-1-3-----1-3-----|------------0-----------|--------------------3---|
|3-----------------------|------------2-----------|--------3-------0-------|
|--------------------0---|2---------------2-------|----------------0-------|
|----0---2-----3---------|----0---2---------------|----4---------------2---|
|------------------------|------------0-----------|------------------------|

 |       |       |        |       |       |        |       |       |        
|----0-2-0---------------|0-----------2-----4-5---|4-----5-7---5-------0---|
|0-----------2-----------|------------------------|0-----------2-----------|
|2-------------------3---|--------3-------0-------|------------------------|
|------------------------|----------------0-------|------------------------|
|------------0-----------|----4-------------------|----------------0---4---|
|----0-------------------|------------------------|----0-------------------|

 |       |       |        |       |       |        |       |       |        
|2-----------2-----------|----0-2-0-----------0---|2-----------2-------5---|
|--------3-----------3---|0-----------2-----------|--------3---------2-----|
|----0-----------0-------|2-----------3-----------|----0---------------5-3-|
|----0-----------0-------|------------------------|----0-----------0-------|
|--------2-----------2---|----------------0---4---|--------2---------------|
|------------------------|----0-------------------|------------------------|

 |       |       |        |       |       |        |       |       |        
|7-----5-4---5-----------|0-----0-----2-----------|----0-2-0---------------|
|------------2-----------|--------2---------0-3-2-|--0-------3-2-5-5-2-2---|
|----7---5---3-----------|----------3-----0-------|2---------------------3-|
|6-----------2-----------|--------------0---------|------------------------|
|------------0-----------|----4---------------2---|------------0-----------|
|----0-------------------|------------------------|----0-------------------|

 |       |       |        |       |       |        |       |       |        
|0-----0-------2-----5---|4-5-7-5---4-5-----4-2-0-|2-----0---0-2-----2-----|
|--------2-------3-2-----|--------0---------------|--------3-----------3-2-|
|----3-----3---------5-3-|------7-----------------|----0-----------0-------|
|------------0-----------|------------------------|----0-----------0-------|
|--4---------------------|----------------0---4---|--------2-----------2---|
|------------------------|0-----------------------|------------------------|

 |       |       |        |       |       |        |       |       |        
|--0-0---0-----------0-3-|2-----------2-----2-5---|7-----------5-------4---|
|0-----0---3-2-0-2-3-----|--------3---------------|------------------------|
|2-----------3-----------|------0-5---------------|--------5---7---5-------|
|--------2---------------|----0-------------------|6---7-------------------|
|----------------0---4---|--------2-------0-------|------------------------|
|----0-------------------|------------------------|0-----------------------|

 |       |       |         
|5-----------------------||
|2-----------------------||
|3-----------------------||
|2-----------------------||
|0-----------------------||
|------------------------||
comments
We did not receive enough feedback on this tab! Please rate:
print report bad tab
1 2 3 4 5
I want to post or [tab]
guest
You may want to rate the tab now too:
select rating
Please do not post tabs as comments. Select "correction" instead!