Oops, an error
Loading. Please wait.

Bicycle Built For Two tab

version 1
version 1

Whole song

Interactive

403 views 6 this week
no commentswrite comment
1 2 3 4 5
3 more votes to show rating
add to favorites
×
Save as Personal and add changes to this tab that will be seen only by you. Learn more ›
×
You can save this tab as Personal to edit and correct it or add notes. All changes will be seen only by you. Learn more »
launch autoscroll
font size
0
reset
how to read this tab
guitar tuner
edit
Autoscroll
slow
fast
+/-
esc
set tempo
stop
Author
Bicycle Built For Two 
titled Daisy as additional session outtake released on 
the 2001 reissue of "The Dance of Death and Other Plantation Favorites"      

Trad. Arranged by John Fahey
from The "Transfiguration of Blind Joe Death"

To play the version of this song from "Dance of Death and other Plantation 
Favorites" (a.k.a. Daisy), play the third beat of measure 24 followed by 
measures 25 to 32 (end) as an introduction. The bass notes on the 6th string
are muted with the palm of the right hand.

Transcribed by Mike Zuber mdz0739@yahoo.com

Standard tuning
Time Signature: 3/4 Time 
Performance speed: about 176 BPM

R = roll

 1                       R                                                   
E||---3---------------|--0--------------|-----------------|-----------------|
B||----------------1--|-----------------|--1--------------|-----------------|
G||*------------------|-----------------|-----------------|--0--------------|
D||*-------2----2-----|-------2----2----|-------2----2----|-------2----0----|
A||-------------------|-----------------|-----------------|-----------------|
E||---3---------------|--3--------------|--3--------------|--3--------------|
      |    |    |        |    |    |       |    |    |       |    |    |

5                                                                          
-----------------|-----------------|------------------|------------------|
-------0----1----|------------1----|------------------|------------------|
--2--------------|--2--------------|--0------------0--|---------------0--|
-------3----3----|-------3----3----|-------2----2-----|-------2----2-----|
-----------------|-----------------|------------------|------------------|
--1--------------|--1--------------|--3---------------|--3---------------|
  |    |    |       |    |    |       |    |    |        |    |    |

9                    R                                                   
------------------|--3--------------|--0--------------|-----------------|
--3------------0--|-----------------|-----------------|--1--------------|
------------------|-----------------|-----------------|-----------------|
-------0----0-----|-------0----0----|-------2----2----|-------0----0----|
------------------|-----------------|--3--------------|-----------------|
--3---------------|--3--------------|-----------------|--3--------------|
  |    |    |        |    |    |       |    |    |       |    |    |

13                                                                         
-----------------|------------0----|------------------|------------0----|
-------0----1----|--3--------------|--3---------------|--3--------------|
--2--------------|-----------------|---------------0--|-----------------|
-------3----3----|-------3----3----|-------0----0-----|-------0----0----|
-----------------|-----------------|------------------|-----------------|
--1--------------|--1--------------|--3---------------|--3--------------|
  |    |    |       |    |    |       |    |    |        |    |    |

17R                                                                        
--1----0---------|--3---------0----|-----------------|-----------------|
------------3----|-----------------|--3----1---------|------------3----|
-----------------|-----------------|-----------------|-----------------|
-------0----0----|-------0----0----|-------2----2----|-------2----2----|
-----------------|-----------------|-----------------|-----------------|
--3--------------|--3--------------|--3--------------|--3--------------|
  |    |    |       |    |    |       |    |    |       |    |    |

21                                                      R                 
--0--------------|-----------------|-----------------|----------------|
------------1----|------------1----|-----------------|----------------|
-----------------|--2--------------|--2---------0----|--0---------0---|
-------2----2----|-------3----3----|-------3---------|--0-------------|
-----------------|-----------------|-----------------|----------------|
--3--------------|--1--------------|--1--------------|--3-------------|
  |    |    |       |    |    |       |    |    |       |    |    |

25                                                                        
------------0----|-----------------|------------0----|-------0----1----|
--1--------------|--3--------------|--1--------------|--3--------------|
-----------------|------------0----|-----------------|-----------------|
-------2----2----|-------0----0----|-------2----2----|-------0----0----|
-----------------|-----------------|-----------------|-----------------|
--3--------------|--3--------------|--3--------------|--3--------------|
  |    |    |       |    |    |       |    |    |       |    |    |

29R                                                     R             
--3----0---------|-----------------|-----------------|----------------||
--1---------1----|--3---------3----|--1----1----1----|--1-------------||
-----------------|-----------------|-------2----1----|--0------------*||
-------2----2----|-------0----0----|-----------------|---------------*||
-----------------|-----------------|--3----3----3----|--3-------------||
--3--------------|--3--------------|-----------------|----------------||
  |    |    |       |    |    |       |    |    |       |    |    |

            
            
Suggest correction
Creating personal tab
Creating personal tab
You can edit any tab online and save it as your Personal.

You can edit, replace or remove any tab part or add personal notes – all changes will be seen only by you.

Personal tabs can be accessed anytime from any device, even offline.
Learn more »
Give kudos to tab author, rate the tab!
1 2 3 4 5
comments
print report bad tab
guest
You may want to rate the tab now too:
select rating
Wanna post a correction for this tab? Suggest correction