Oops, an error
Loading. Please wait.

Bad Moon Rising Tab

17,103 views 18 this week
1 commentread comment
1 2 3 4 5
2 more votes to show rating
add to favorites
launch autoscroll
font size
0
reset
how to read this tab
guitar tuner
Autoscroll
slow
fast
+/-
esc
set tempo
stop
Help us to improve Ultimate-Guitar.com Take our survey!
×
Author
Difficulty
novice
I got this from a guitar magizine with a article writen about Fogerty so this is 100% correct
and it said to tune whole step down(low to high: D G C F A D)


Solo:
--4-4--4-4--2--0------0---------0---------4-4--4-4--2--5--4--|
--5-5--5-5--4--2------0--2--------2--0----5-5--5-5--4--5--5--|
--4-4--4-4--4--2--0h1------0h1------------4-4--4-4--4--6--4--|
---------------------------------------X---------------------|
-------------------------------------------------------------|
-------------------------------------------------------------|

h-hammer on
X-mute

And that is the solo to Bad Moon Rising
Suggest correction
Give kudos to tab author, rate the tab!
1 2 3 4 5
comments
print report bad tab
1 comment total.
0 reply
Schdaiff 348 Mar 22, 2013 11:38 AM

in standard tuning:
1 1 3 1 1 1 3 1
D A G D D A G D
------------------------------------------2-2--2-2--0--3--2--|
--7-7--7-7--5--3------3---------3---------3-3--3-3--2--3--3--|
--7-7--7-7--6--4------2--4--------4--2----2-2--2-2--2--4--2--|
--7-7--7-7--7--5--3h4------3h4---------X---------------------|
-------------------------------------------------------------|
-------------------------------------------------------------|

guest
You may want to rate the tab now too:
select rating
Wanna post a correction for this tab? Suggest correction