Oops, an error
Loading. Please wait.

Long Dark Night Tab

2,243 views 15 this week
no commentswrite comment
1 2 3 4 5
2 more votes to show rating
add to favorites
launch autoscroll
font size
0
reset
how to read this tab
guitar tuner
Autoscroll
slow
fast
+/-
esc
set tempo
stop
Help us to improve Ultimate-Guitar.com Take our survey!
×
Tuning
D G C F A D
(/) Slide Up  (\) Slide Down  (h) Hammer On  (p) Pull Off  (b) Bend (r) Release (v) Vibrato

Long Dark Night by John Fogerty.
Tapped by Kronos1000

Before playing tune every string on your guitar one step down, or you'll be out of tune.

Chords:

E (D):

D|--0--
A|--0--
F|--1--
C|--2--
G|--2--
D|--0--

E7 (D7):

D|--0--
A|--4--
F|--1--
C|--2--
G|--2--
D|--0--

A (G):

D|--0--
A|--2--
F|--2--
C|--2--
G|--0--
D|-----

A7 (G7):

D|--3--
A|--2--
F|--2--
C|-----
G|-----
D|-----

Intro:

D|-------------            |----------0--|
A|-------------            |--3--3b2-----|
F|--2b3--------            |-------------|
C|-------3--0-- E E7 E X E |-------------|
G|------------- (Chords)   |-------------|
D|-------------            |-------------|

E

George is in the jungle
Knockin' on the door
Come to get your children
Wants to have a war

Chorus

D|-------------|
A|-------------|
F|-------------|
C|-------------|
G|----------0--|
D|--0--3b4-----|         A

Come on,


D|----------|
A|----------|
F|----------|
C|----------|
G|----------|
D|--0--3p0--|         E E7 E X E

lord you'd better run,

D|--------------------------|
A|--------------------------|
F|--------------------------|
C|--7--7--7--7--5--5--7--7--|
G|--5--5--4--4--3--3--5--5--|
D|--------------------------|                   E E7 E X E

Be a long dark night before this thing is done


Brownie's in the outhouse
Katrina on the line
Gulf is a disaster
But Georgie says it's fine

Chorus

Come on, lord you'd better run,
Be a long dark night before this thing is done

Bridge 1

D|--7--
A|--8--
F|-----
C|-----
G|-----
D|----- Repeat a lot of times....

D|-------------|
A|-------------|
F|-------------|
C|-------------|
G|----------0--|
D|--0--3b4-----|         A


D|----------|
A|----------|
F|----------|
C|----------|
G|----------|
A|--0--3p0--|  E E7 E X E


D|--------------------------|
A|--------------------------|
F|--------------------------|
C|--7--7--7--7--5--5--7--7--|
G|--5--5--4--4--3--3--5--5--|
D|--------------------------|

Harmonica plays...


Brownie's in the kitchen messin' with the pan
Dickie's in the back stealing everything he can

Chorus

Come on, Lord you'd better run,
Be a long dark night before this thing is done

E                              E E7 E X E

You better run, you better run,

                    A                   E E7 E X E

Lord you better run,  wow, you better run,

D|--------------------------|
A|--------------------------|
F|--------------------------|
C|--7--7--7--7--5--5--7--7--|
G|--5--5--4--4--3--3--5--5--|
D|--------------------------|

Harmonica plays...

N.C.

Runnin' down the highway
Shoutin' to the Lord
George's got religion
And you know he can't afford more, yeah

Chorus

Come on, Lord you'd better run
Be a long dark night before this thing is done
Be a long dark night before this thing is done

Ending

D|--0--
A|--5--
F|-----
C|-----
G|-----
D|----- Repeat a lot of times....

D|-------------|
A|-------------|
F|-------------|
C|-------------|
G|----------0--|
D|--0--3b4-----|         A7


D|----------|
A|----------|
F|----------|
C|----------|
G|----------|
A|--0--3p0--|

D|--7--
A|--8--
F|-----
C|-----
G|-----
D|----- Same rythm as E E7 E X E


D|--------------------------|
A|--------------------------|
F|--------------------------|
C|--7--7--7--7--5--5--7--7--|
G|--5--5--4--4--3--3--5--5--|
D|--------------------------|    E

Harmonica plays...
Suggest correction
Give kudos to tab author, rate the tab!
1 2 3 4 5
comments
print report bad tab
guest
You may want to rate the tab now too:
select rating
Wanna post a correction for this tab? Suggest correction