Oops, an error
Loading. Please wait.

Summer Of Love Tab

2,622 views 3 this week
no commentswrite comment
1 2 3 4 5
1 last vote to show rating
add to favorites
launch autoscroll
font size
0
reset
how to read this tab
guitar tuner
Autoscroll
slow
fast
+/-
esc
set tempo
stop
Author
this is the tab for the song "summer of love" from the new album "revival", just 
listen to the song and you'll find the timing

intro....repet twice
E------------------------------------|-----------------------------------|
B------------------------------------|-----------------------------------|
G---10-------------------------------|--10-------12b14-12b14--10--10-----|
D-------12--12------12--10-----------|-----12-12-----------------12------|
A----------------12--------12---10---|-----------------------------------|
e----------------------------------13|-----------------------------------|

THEN PLAY A5

Pre solo
E------------------------------------|-----------------------------------|
B------------------------------------|-----------------------------------|
G---------------10-------------------|-----------------------------------|
D---12-12-10-12----------------------|----12-10--------------------------|
A-12---------------------------------|--12-----12-10---------------------|
e------------------------------------|--------------13-------------------|





VERSE:
D5                       C5 G5
It was the summer of love
D5       E5           /F5   
Freedom was in the air
D5            C5       G5
Young people everywhere
D5
So many questions if you dare.







I'll make the tab of the solos as soon as I have time
Almost all the solo is in the frets 10 12 and 13 on the E B G strings
Suggest correction
Give kudos to tab author, rate the tab!
1 2 3 4 5
comments
print report bad tab
guest
You may want to rate the tab now too:
select rating
Wanna post a correction for this tab? Suggest correction