Oops, an error
Loading. Please wait.

The Old Man Down The Road Tab

version 1
version 1

Intro

Whole song

Interactive

12,216 views 12 this week
3 commentsread comments
1 2 3 4 5
x 4
add to favorites
launch autoscroll
font size
0
reset
how to read this tab
guitar tuner
Autoscroll
slow
fast
+/-
esc
set tempo
stop
Help us to improve Ultimate-Guitar.com Take our survey!
×
Tabbed by: Philvanwileo
Email:

Tuning:standard

e|-----------------------------------------------------------------------------------|
B|-----------------------------------------------------------------------------------|
G|-----------------------------------------------------------------------------------|
D|-----------5--------7------7^9------5----------------------------------------------|
A|--------------------------------------------7--------5-----------------------------|
E|-------------------------------------------------------------7-------5-------------|

e|---------------------------------|
B|---------------------------------|
G|---------------------------------|
D|---------------------------------|
A|-------7----------------------7--|
E|------------------7--------------|This is my first tab. i think its mostly correct
Suggest correction
comments
print report bad tab
3 comments total.
0 reply
FrazerXskead 75 Apr 10, 2008 08:16 AM

This isnt right..but almost..:) keep trying

0 reply
brytonC3 31 Sep 01, 2009 11:38 PM

e|-----------------------------------------------------------------------------------|
B|-----------------------------------------------------------------------------------|
G|-----------------------------------------------------------------------------------|
D|-----------5--------7------7^9------5----------------------------------------------|
A|--------------------------------------------7--------5-----------------------------|
E|-------------------------------------------------------------7-------5-------------|

e|------------------------------|
B|------------------------------|
G|------------------------------|
D|------------------------------|
A|---------7-----------------7--|
E|--0--------------0------------|

0 reply
Zedly T 326 Aug 13, 2014 04:03 AM

Clearly wrong.

guest
You may want to rate the tab now too:
select rating
Wanna post a correction for this tab? Suggest correction