Oops, an error
Loading. Please wait.

Judy In Disguise Tab

2,898 views 9 this week
no commentswrite comment
1 2 3 4 5
please rate
add to favorites
launch autoscroll
font size
0
reset
how to read this tab
guitar tuner
Tab Pro tools
  • play this tab
  • loop segment
  • change instrument
  • show fretboard
  • metronome
×
Best way to learn
"Judy In Disguise"
Autoscroll
slow
fast
+/-
esc
set tempo
stop
Contributor
Song: 'Judy in Disguise" by John Fred and his Playboy Band

This is such a great little song for parties.   I transcribed it the way I remember it.
Should be pretty close.. at least close enough to have some fun with a regular
tuned.. no capo.. acoustic guitar.  Best sounding with 2 guitars.

Intro:
e -------------------------------------------------------------|
B -------------------------------------------------------------|
G -------------------------------------------------------------|
D -------------------------------------------------------------|
A ---5-5--------5--5------------5-5---------5--5---------------|
E -------7-5-7-------7-5-5-7-5------7-5-7--------7-5-5-7-5-----|

e -------------------------------------------------------------|
B -------------------------------------------------------------|
G -------------------------------------------------------------|
D -------------------4-----------------4-----------------4-----|
A --5-5-5--5-5-7-7-5---5-5-5--5-5-7-7-5--5-5-5--5-5-7-7-5------|
E -----7----7-------------7----7------------7----7-------------|


(This is the best I did to try and mimick the sound effects that happen before the verse)
e ---------------------------|
B ---------------------------|
G -----7\------7\-----7------|
D -----7\------7\-----7------|
A --------/5------/5---------|
E ---------------------------|

           D                             A
Judy in disguise..well thats a what you are
                                 D
A lemonade pie..with a brand new car
                             A                D
Cantalope eyes come to me tonight..Judy in disguise.. with glasses

e --------------------------------------------|
B --------------------------------------------|
G --------------------------------------------|
D --------------------------------------------|
A ---5-5---------5--5------------5-5-------5--|
E -------7-5-7--------7-5-5-7-5------7-5-7----|

                    D                            A
Keep a wearing your bracelets...... and your new rara
                                                 D
A cross your heart...yeah...... with your living bra
                             A                 D
A chimny sweep sparrow with guise...Judy in disguise.. with glasses
G                                          D A
Come tell me tonight.... come tell me tonight
G                        F
I've taken everything in sight
  G                          A
except for the strings on my kite

e -------------------------------------------------------------------|
B -------------------------------------------------------------------|
G --2-2---------2-2------------2-2--------2-2------------2-2------2--|
D ------4-2-4-------4-2-2-4-2------4-2-4------4-2-2-4-2-----4-2-4----|
A -------------------------------------------------------------------|
E -------------------------------------------------------------------|

           D                           A
Judy in disguise..hey thats a what you are
                                            D
a lemonade pie...hey you got your brand new car
                            A                 D
Cantalope eyes come to me tonight..Judy in disguise.. with glasses

 D                           D (solo)     A
|-----|------|------|------||-----|------|------|------|
 A            D              D     A      D
|-----|------|------|------||-----|------|------|------|

e -----------------------------------------------|
B -----------------------------------------------|
G -----------------------------------------------|
D -----------------------------------------------|
A ---5-5---------5--5-------------5-5--------5---|
E -------7-5-7--------7-5-5-7-5-------7-5-7------|

(solo tab)
e --------------------------------------------|
B --------------------------------------------|
G ---------7---7-7-9-9--------9---9-9-11-9-7--|
D -7-7-9-7------------11--9-11----------------|
A --------------------------------------------|
E --------------------------------------------|

e --------------------------------------------|
B ----------------------------------------7---|
G -7-7-9-11---11-11-11-7-9---9-11-11-7---7-7--|
D --------------------------------------------|
A --------------------------------------------|
E --------------------------------------------|

G                                           D A
Come tell me tonight.... come tell me tonight
     G                   F        G                          A
I've taken everything in sight..except for the strings on my kite

e ------------------------------------------------------|
B ------------------------------------------------------|
G --2-2--------2-2------------2-2--------2-2------------|
D ------4-2-4------4-2-2-4-2------4-2-4-------4-2-2-4-2-|
A ------------------------------------------------------|
E ------------------------------------------------------|

e ------------------------------------------------------|
B ------------------------------------------------------|
G --2-2--------2-2------------2---7\----7\----7---------|
D ------4-2-4------4-2-2-4-2------7\----7\----7---------|
A -----------------------------------/5----/5-----------|
E ------------------------------------------------------|

           D                        A
Judy in disguise..a what you aiming for
                                                   D
a circus of horrors... yeah... well thats what you are
                       A       n.c.                       (D)
You made me a life of ashes.. I guess I'll just take your glasses
                           e -----------------------------2-------|
                           B -------------------3----0--------3---|
                           G -2-4-----2----4----------------------|
                           D -------------------------------------|
                           A -------------------------------------|
                           E -------------------------------------|
comments
We did not receive enough feedback on this tab! Please rate:
print report bad tab
1 2 3 4 5
I want to post or [tab]
guest
You may want to rate the tab now too:
select rating
Please do not post tabs as comments. Select "correction" instead!