Oops, an error
Loading. Please wait.

Judy In Disguise tab

version 2
version 2

Whole song

Interactive

109 views 3 this week
no commentswrite comment
1 2 3 4 5
3 more votes to show rating
add to favorites
×
Save as Personal and add changes to this tab that will be seen only by you. Learn more ›
×
You can save this tab as Personal to edit and correct it or add notes. All changes will be seen only by you. Learn more »
launch autoscroll
font size
0
reset
how to read this tab
guitar tuner
edit
Autoscroll
slow
fast
+/-
esc
set tempo
stop
Author
Difficulty
JUDY IN DISGUISE (WITH GLASSES)

As recorded by John Fred & His Playboy Band
(From the 1967 Album AGNES ENGLISH)

Words and Music by John Fred Gourrier & Andrew Bernard

Transcribed by Slowhand


Gtr I (E A D G B E) - 'Jimmy O'Rourke - Electric Guitar'
Gtr II (E A D G B E) - 'Jimmy O'Rourke - Sitar'


 Intro
  Q=165
  N.C.
 4/4
  Gtr I (Clean El. Gtr.)
  W          W          W          W
|----------|----------|----------|------|
|----------|----------|----------|------|
|----------|----------|----------|------|
|----------|----------|----------|------|
|----------|----------|----------|------|
|----------|----------|----------|------|


                             PM------------------------|
  W          W          H    E E E E   E E E E +E  E E E
|----------|----------|--------------|--------------------|
|----------|----------|--------------|-------8-(8)--------|
|----------|----------|--------------|-------8-(8)--------|
|----------|----------|--------------|-----8-------8------|
|----------|----------|----------6---|-6-6-----------6-8--|
|----------|----------|------6-8---8-|--------------------|


  PM--------------------------------------------------------------------|
  E Q  E E E E E   E E E E +E  E E E   E Q  E E E E E   E E E E +E  E E E
|----------------|-------------------|----------------|--------------------|
|----------------|-------8-(8)-------|----------------|-------8-(8)--------|
|----------------|-------8-(8)-------|----------------|-------8-(8)--------|
|---6--5---------|-----8-------8-----|---6--5---------|-----8-------8------|
|--------6-8-6---|-6-6-----------6-8-|--------6-8-6---|-6-6-----------6-8--|
|--------------8-|-------------------|--------------8-|--------------------|


                   Bb          Cm   Db     Bb/D        Eb     N.C.
  PM-----------|                                              PM----|
  E Q  E E E E E   H    H      H    H      H    H      E E Q  E E E E
|----------------|-----------|-----------|-----------|-3----------------||
|----------------|-6----6----|-4----5----|-3----3----|-4----------4-----||
|----------------|-7----7----|-5----6----|-3----3----|-3------3-5---5---||
|---6--5---------|-8----8----|-5----6----|-3----3----|-5----------------||
|--------6-8-6---|-8----8----|-3----4----|-5----5----|-6----------------||
|--------------8-|-6----6----|-----------|-----------|------------------||


   1st - 4th Verses
    $
    N.C.
    PM--------------------------------------------------------------|
    E E E E Q  E E   E Q  E E E E E   E E E E Q  E E   E Q  E E E E E
||-----------------|----------------|----------------|----------------|
||o-4-4----------4-|---4------------|----------------|----------------|
||------5---3--5---|------5-3-3-5---|-3-3----------3-|---3------------|
||-----------------|--------------5-|-----5---3--5---|------5-3-3-5---|
||o----------------|----------------|----------------|--------------5-|
||-----------------|----------------|----------------|----------------|


  PM----------------------------------------|    PM----------------|
  E E E E Q  E E   E Q  E E E E E   E E E E Q  E E   E E E E E E E E
|----------------|----------------|----------------|------------------|
|----------------|------------4---|-4-4------------|---4--------------|
|-3-3----------3-|---3----3-5---5-|-----5---3------|-3---5---3-3-5-3--|
|-----5---3--5---|------5---------|--------------5-|-------5----------|
|----------------|----------------|----------------|------------------|
|----------------|----------------|----------------|------------------|


  Eb          Bb/D                 N.C.
                                   PM-----------|     PM
  Q  Q  E E E E   +Q   Q  E E Q    E E E E Q  E E   E E Q  H
|---------------|----------------|------------6-3-|-------------||
|-4--4--4-4-4-3-|-(3)--3--3-3-3--|-4-4------------|---4---------||
|-3--3--3-3-3-3-|-(3)--3--3-3-3--|-----5---3------|-------------||
|-5--5--5-5-5-3-|-(3)--3--3-3-3--|----------------|-------------||
|-6--6--6-6-6-5-|-(5)--5--5-5-5--|----------------|-------------||
|---------------|----------------|----------------|-------------||


 Interlude
  1.
  Eb
  E E E E Q  E E   E Q  E E E E E   E E E E Q  E E   W
|----------------|----------------|----------------|-------||
|-4-4----------4-|---4------------|-4-4----------4-|------o||
|-3-3-5---3--5-3-|---3--5-3-3-5-3-|-3-3-5---3--5-3-|-------||
|-5-5-5---5--5-5-|---5--5-5-5-5-5-|-5-5-5---5--5-5-|-------||
|----------------|----------------|----------------|------o||
|----------------|----------------|----------------|-------||


 Chorus
  2.
  Ab5                                   Db5 Bb5    Ab5
  W          +W           W          Q  E E H      W
|----------|------------|----------|-------------|------|
|----------|------------|----------|-------------|------|
|----------|------------|----------|-------------|------|
|-6--------|-(6)--------|----------|----6---8----|-6----|
|-6--------|-(6)--------|----------|----4---8----|-6----|
|-4--------|-(4)--------|----------|--------6----|-4----|


  Gb5        Ab5        N.C.
                        PM--------------------------|
  W          W          E E E E Q  E E   E Q  E E E E E
|----------|----------|----------------|-----------------|
|----------|----------|----------------|-----------------|
|----------|----------|----------------|-----------------|
|-4--------|-6--------|----------------|-----------------|
|-4--------|-6--------|-1-1----------1-|---1-------------|
|-2--------|-4--------|-----3---1--3---|------3-1-1-3----|


                           To Coda          D.S. al Coda
                                     Bb
  PM--------------------------|
  E E E E Q  E E   E Q  E E E E E    E E E E Q  E E   W
|----------------|-----------------|----------------|-------||
|----------------|-----------------|-3-3-4---3--4-3-|-------||
|----------------|-----------------|-3-3-3---3--3-3-|-------||
|----------------|-----------------|-3-3-3---3--3-3-|-------||
|-1-1----------1-|---1-------------|----------------|-------||
|-----3---1--3---|------3-1-1-3----|----------------|-------||


  &
  Bb
                                    TP         TP
  E E E E Q  E E   E Q  E E E E E   W          W
|----------------|----------------|----------|------|
|-3-3-4---3--4-3-|---3--4-3-3-4-3-|-3--------|-3----|
|-3-3-3---3--3-3-|---3--3-3-3-3-3-|-3--------|-3----|
|-3-3-3---3--3-3-|---3--3-3-3-3-3-|-3--------|-3----|
|----------------|----------------|-1--------|-1----|
|----------------|----------------|----------|------|


                           5th Verse
  Eb                        N.C.
  TP                        PM-----------------------------|
  W          E E Q  H       E E E E Q  E E   E E E E E E E E
|----------|-------------||----------------|---3-----3--------|
|-4--------|-4-----------||-4-4----------4-|-------6---6-4----|
|-3--------|-3-----------||-----5---3--5---|------------------|
|-5--------|-5-----------||----------------|---------------5--|
|-6--------|-6-----------||----------------|------------------|
|----------|-------------||----------------|------------------|


  PM----------------------------------------------------|   PM------|
  E E E E Q  E E   E E E E E E E E   E E E E Q  E E   E E E E E E E E
|----------------|-----------------|----------------|------------------|
|----------------|---3---4-3-------|----------------|---3---------4----|
|-3-3----------3-|-----------5-3---|-3-3----------3-|-------5-3-5---5--|
|-----5---3--5---|---------------5-|-----5---3--5---|------------------|
|----------------|-----------------|----------------|------------------|
|----------------|-----------------|----------------|------------------|


  PM----------------------------|
  E E E E Q  E E   E Q  E E E E E   Q  E E Q    E E
|----------------|----------------|-3------------------|
|-4-4----------4-|---4--------4---|----4---------------|
|-----5---3--5---|------5-3-5---5-|------3-5b6--3-5b6==|
|----------------|----------------|--------------------|
|----------------|----------------|--------------------|
|----------------|----------------|--------------------|


                      Outro
                    freely Q=89
           Bb             N.C.
                       Gtr II (Sitar arr. for Gtr.)
                                              |----3----|
  +E   E E E E E Q     Q  Q  Q  Q    Q  Q  Q  E    +E  +E    +W
|-------------------||-------------|-----------------------|--------*|
|----------3---3----||----8--------|-------8---------------|--------*|
|-(5)r-----3---3----||-------8-----|-5--------8b9==(8)r(8)-|-(8)----*|
|------3---3---3----||----------8--|----8------------------|--------*|
|-------------------||-------------|-----------------------|--------*|
|-------------------||-------------|-----------------------|--------*|


Duration Legend
---------------
W - whole; H - half; Q - quarter; E - 8th; S - 16th; T - 32nd; X - 64th; a - acciaccatura
+ - note tied to previous; . - note dotted; .. - note double dotted
Uncapitalized letters represent notes that are staccato (1/2 duration)
Irregular groupings are notated above the duration line
Duration letters will always appear directly above the note/fret number it represents the
duration for.  Duration letters with no fret number below them represent rests.  Multi-
bar rests are notated in the form Wxn, where n is the number of bars to rest for.  Low
melody durations appear below the staff

Tablature Legend
----------------
 h   - hammer-on
 p   - pull-off
 b   - bend
 pb  - pre-bend
 r   - bend release (if no number after the r, then release immediately)
 /\  - slide into or out of (from/to "nowhere")
 s   - legato slide
 S   - shift slide
  - natural harmonic
[n]  - artificial harmonic
n(n) - tapped harmonic
 ~   - vibrato
 tr  - trill
 T   - tap
 TP  - trem. picking
 PM  - palm muting
\n/  - tremolo bar dip; n = amount to dip
 \n  - tremolo bar down
 n/  - tremolo bar up
/n\  - tremolo bar inverted dip
 =   - hold bend; also acts as connecting device for hammers/pulls
 <>  - volume swell (louder/softer)
 x   - on rhythm slash represents muted slash
 o   - on rhythm slash represents single note slash

Misc Legend
-----------
 |  - bar
||  - double bar
||o - repeat start
o|| - repeat end
*|  - double bar (ending)
 :  - bar (freetime)
 $  - Segno
 &  - Coda
Tempo markers -  = BPM(8/16=s8/s16), where s8 = swing 8ths, s16 = swing 16ths



Judy in Disguise, well that's a-what you are
A-lemonade pies, with your brand new car
Cantaloupe eyes come to me tonight
You're Judy in disguise, with glasses

Keep a-wearing your bracelets, and your new rah rah
A-cross your heart, yeah, with your living bra
A-chimney sweep sparrow with guys
You're Judy in Disguise, with glasses

Come to me tonight, come to me tonight
I've taken everything in sight
Unzipper the strings of my kite

Judy in Disguise, hey that's what you are
A-lemonade pies, hey got your brand new car
Cantaloupe eyes come to me tonight
You're Judy in Disguise, with glasses

Come to me tonight, come to me tonight
I've taken everything in sight
Unzipper the strings of my kite

Judy in Disguise, well what you aiming for
A-circus of a-horrors, yeah yeah, well that's what you are
You make me a life of ashes
I guess I'll just take your glasses

            
            
Suggest correction
Creating personal tab
Creating personal tab
You can edit any tab online and save it as your Personal.

You can edit, replace or remove any tab part or add personal notes – all changes will be seen only by you.

Personal tabs can be accessed anytime from any device, even offline.
Learn more »
Give kudos to tab author, rate the tab!
1 2 3 4 5
comments
print report bad tab
guest
You may want to rate the tab now too:
select rating
Wanna post a correction for this tab? Suggest correction