Oops, an error
Loading. Please wait.

Judy In Disguise With Glasses Bass Tab

1,653 views 18 this week
no commentswrite comment
1 2 3 4 5
please rate
add to favorites
launch autoscroll
font size
0
reset
guitar tuner
Tab Pro tools
  • play this tab
  • loop segment
  • change instrument
  • show fretboard
  • metronome
×
Best way to learn
"Judy In Disguise With Glasses"
Autoscroll
slow
fast
+/-
esc
set tempo
stop
Difficulty
novice
Song: Judy In Disguise (With Glasses)
Artist: John Fred & His Playboy Band
Album: Pirate Radio (Motion Picture Soundtrack)

Tabbed by: strandofgenius

\ = slide up.
/ = slide down.
x = mute.
~ = let ring.

                                                                    Judy
  + - - - + - - - + - - - + - - -      +   +   +   +    +   +   +   +
G|8-8-----------8---8------------|    |8---------------|----------------|
D|----10--8-8-10--------108-8-108|    |----------------|--------6-6-----|
A|-------------------------------|    |----------------|----------------|
E|-------------------------------| x5 |----------------|----------------|

  in diguise...
  + - - - + - - - + - - - + - - -  + - - - + - - - + - - - + - - -
G|8-8-----------8---8-------------|-------------------------------|
D|----10--8-8-10--------108-8-10--|8-8-----------8---8------------|
A|------------------------------10|----10--8-8-10--------108-8-10-|
E|--------------------------------|-------------------------------|

  + - - - + - - - + - - - + - - -  + - - - + - - - + - - - + - - -
G|--------------------------------|8-8-----------8---8------------|
D|8-8-----------8---8-----------10|----10--8-8-10--------108-8-108|
A|----10--8-8-10--------108-8-10--|-------------------------------|
E|--------------------------------|-------------------------------|

                         With glasses... 
  +   +   +   +    +   +   +   +
G|----------------|----------------|
D|----------------|----------------|
A|5555555588888888|66666-86--------|
E|----------------|----------------|

                                                    Keep a-wearin'
  + - - - + - - - + - - - + - - - + - - - + - - - + - - - + - - -
G|8-8-----------8---8------------|8-8-----------8----------------|
D|----10--8-8-10--------108-8-108|----10--8-8-10-----------------|
A|-------------------------------|-------------------------------|
E|-------------------------------|-------------------------------|

  your bracelets...
  + - - - + - - - + - - - + - - -  + - - - + - - - + - - - + - - -
G|8-8-----------8---8-------------|-------------------------------|
D|----10--8-8-10--------108-8-10--|8-8-----------8---8------------|
A|------------------------------10|----10--8-8-10--------108-8-10-|
E|--------------------------------|-------------------------------|

  + - - - + - - - + - - - + - - -  + - - - + - - - + - - - + - - -
G|--------------------------------|8-8-----------8---8------------|
D|8-8-----------8---8-----------10|----10--8-8-10--------108-8-108|
A|----10--8-8-10--------108-8-10--|-------------------------------|
E|--------------------------------|-------------------------------|

                         With glasses...
  +   +   +   +    +   +   +   +    +   +   +   +    +   +   +   +
G|----------------|----------------|----------------|----------------|
D|----------------|----------------|----------------|----------------| 
A|5555555588888888|66666-86--------|----------------|----------------|
E|----------------|----------------|4~--------------|----------46~---|

  +   +   +   +    +   +   +   +    +   +   +   +    +   +   +   +
G|----------------|----------------|----------------|----------------|
D|----------------|----------------|----------------|----------------|
A|----------------|--------11-----1|-1------11-----1|-1------11-----1|
E|4--44-4/2--22-2\|4--44-4---3-113-|---31131--3-113-|---31131--3-113-|

          Judy in disguise...
  + - - - + - - - + - - - + - - - + - - - + - - - + - - - + - - -
G|----------------8-8-----------8|--8----------------------------|
D|--------------------10--8-8-10-|------108-8-10--8-8-----------8|
A|-------------------------------|--------------10----10--8-8-10-|
E|-------------------------------|-------------------------------|

  + - - - + - - - + - - - + - - - + - - - + - - - + - - - + - - -
G|-------------------------------|----------------8-8-----------8|
D|--8-------------8-8-----------8|--8-----------10----10--8-8-10-|
A|------108-8-10------10--8-8-10-|------108-8-10-----------------|
E|-------------------------------|-------------------------------|

                                                         With glasses... 
  + - - - + - - - + - - - + - - - +   +   +   +    +   +   +   +
G|--8----------------------------|----------------|----------------|
D|------108-8-10--8-8-----------8|----------------|----------------|
A|--------------10----10--8-8-10-|5555555588888888|66666-86--------|
E|-------------------------------|----------------|----------------|

 (instrumental)
  + - - - + - - - + - - - + - - - + - - - + - - - + - - - + - - -
G|8-8-----------8---8------------|8-8-----------8----------------|
D|----10--8-8-10--------108-8-108|----10--8-8-10-----------------|
A|-------------------------------|-------------------------------|
E|-------------------------------|-------------------------------|

  + - - - + - - - + - - - + - - -  + - - - + - - - + - - - + - - -
G|8-8-----------8---8-------------|-------------------------------|
D|----10--8-8-10--------108-8-10--|8-8-----------8---8------------|
A|------------------------------10|----10--8-8-10--------108-8-10-|
E|--------------------------------|-------------------------------|

  + - - - + - - - + - - - + - - -  + - - - + - - - + - - - + - - -
G|--------------------------------|8-8-----------8---8------------|
D|8-8-----------8---8-----------10|----10--8-8-10--------108-8-108|
A|----10--8-8-10--------108-8-10--|-------------------------------|
E|--------------------------------|-------------------------------|

                                      Come tell me tonight...
  +   +   +   +    +   +   +   +    +   +   +   +    +   +   +   +
G|----------------|----------------|----------------|----------------|
D|----------------|----------------|----------------|----------------| 
A|5555555588888888|66666-86--------|----------------|----------------|
E|----------------|----------------|4~--------------|----------46~---|

  +   +   +   +    +   +   +   +    +   +   +   +    +   +   +   +
G|----------------|----------------|----------------|----------------|
D|----------------|----------------|----------------|----------------|
A|----------------|--------11-----1|-1------11-----1|-1------11-----1|
E|4--44-4/2--22-2\|4--44-4---3-113-|---31131--3-113-|---31131--3-113-|

                               Judy
  +   +   +   +    +   +   +   +
G|8---------------|----------------|
D|----------------|--------6-6-----|
A|----------------|----------------|
E|----------------|----------------|

  in diguise...
  + - - - + - - - + - - - + - - -  + - - - + - - - + - - - + - - -
G|8-8-----------8---8-------------|-------------------------------|
D|----10--8-8-10--------108-8-10--|8-8-----------8---8------------|
A|------------------------------10|----10--8-8-10--------108-8-10-|
E|--------------------------------|-------------------------------|

  + - - - + - - - + - - - + - - -  + - - - + - - - + - - - + - - -
G|--------------------------------|8-8-----------8---8------------|
D|8-8-----------8---8-----------10|----10--8-8-10--------108-8-108|
A|----10--8-8-10--------108-8-10--|-------------------------------|
E|--------------------------------|-------------------------------|
 
  +   +   +   +    
G|----------------|
D|----------------|
A|5555555588888888|
E|----------------|
comments
We did not receive enough feedback on this tab! Please rate:
print report bad tab
1 2 3 4 5
I want to post or [tab]
guest
You may want to rate the tab now too:
select rating
Please do not post tabs as comments. Select "correction" instead!