Oops, an error
Loading. Please wait.

A Corner Chords

version 2
version 2

Whole song

19,993 views 33 this week
2 commentsread comments
1 2 3 4 5
x 13
add to favorites
launch autoscroll
font size
0
reset
transpose
0
reset
simplify chords
display chords
guitar tuner
×
Best way to learn
"A Corner"
Autoscroll
slow
fast
+/-
esc
set tempo
stop
Author
Difficulty
[Intro]
   Dm  C  Bb     
e|---------------|
B|-6---5---3-----|
G|-7---5---3-----|   (x2)
D|-7---5---3-----|
A|-5---3---1-----|
E|---------------|

[Verse]
          Dm             C     Bb 
I mean it I wouldn't go outside
    Am/E         Bb
and walk around
Dm       F             C    Bb**
They may fear for your life
 F    C   Gm           Bb   
But I reached this conclusion
F               C                  
Everyone's in a corner
Gm            Bb
Face to the wall
F                 C
I never looked the other way
Gm                    Bb
I'm not allowed to at all
F                 C
Great is my confusion
Gm               Bb  F                 C
It never lets me be no one said to be here
Gm                Ebmaj7      Dm/F     Ebmaj7
I was punished by me

[Instrumental] (x2)
Dm C Bb 

[Verse]
Dm                        C   Gm/D
And there's a weeping fire 
    Am/E          Bb
As high as a mountain
Dm            F             C   Bb**
And they skip all the way up 
F   C   Gm  Bb
To the top
F                C    Gm  Bb
Great is my confusion
F             C    Gm            Bb
Never lets me down never lets me down
F               C     Gm  Bb
Everyone's in a corner
        F           C     Gm            Ebmaj7
They'll never turn around never turn around
             Dm/F      Ebmaj7
The other way
Bb    F        Dm
na na na na na na
F  Dm  C  G7**
na na  na na

[Outro]
e|-10-8---------------------------------------b15-15-b12-12-10----17p15-17--|
B|------10------b16-b16(16)-15----13h15-15----------------------------------|
G|--------------------------------------------------------------------------|
D|--------------------------------------------------------------------------|
A|--------------------------------------------------------------------------|
E|--------------------------------------------------------------------------|

e|-b19-b19(19)-17-----b16-15p13-15p13---------------------------------------|
B|------------------------------------15---------b16-b16-b16(16)\15------10-|
G|----------------------------------------------------------------------b12-|
D|--------------------------------------------------------------------------|
A|--------------------------------------------------------------------------|
E|--------------------------------------------------------------------------|
Suggest correction
comments
print report bad tab
2 comments total.
0 reply
FunkySpider 35 May 18, 2011 12:01 PM

I think this:
Dm F C Bb**
They may fear for your life

should be this:
Dm F C Dm
They may fear for your life

And played like this:
E|-10-|
B|-10-|
G|-10-|
D|-12-|
A|----|
E|----|

guest
You may want to rate the tab now too:
select rating
Wanna post a correction for this tab? Suggest correction