Oops, an error
Loading. Please wait.

A Fall Through The Ground Tab

3,004 views 12 this week
no commentswrite comment
1 2 3 4 5
x 3
add to favorites
launch autoscroll
font size
0
reset
how to read this tab
guitar tuner
Autoscroll
slow
fast
+/-
esc
set tempo
stop
Help us to improve Ultimate-Guitar.com Take our survey!
×
Author
Difficulty
intermediate
-------------------------------------------------------------------------------
                             A Fall Through The Ground - John Frusciante
-------------------------------------------------------------------------------
Tabbed by: Guitarcrazy1991
Email: Guitarcrazy1991@hotmail.com

Tuning: Standard 

  X2
|--------------------------------------------------------------------------|
|-13------9-------11-----8-------8------4-----3-------3-----4-----3/6------|
|-13------10------12-----8-------8------5-----3-------3-----5-----3/6------|
|-15------11------13-----10------10-----5-----3-------5-----5-----3/6------|
|-15------11------13-----10------10-----3-----1-------5-----3-----1/4------|
|-13------9-------11-----8-------8--------------------3--------------------|

|--------------------------------------------------------------------------------|
|-9------8-----6----4-------------6---9------8------6--------3------4------3-----|
|-10-----8-----6----5-------------6---10-----8------6--------3------5------3-----|
|-10-----8-----6----5-------------6---10-----8------6--------5------5------3-----|
|-8------6-----4----3-------------4---8------6------4--------5------3------1-----|
|------------------------------------------------------------3-------------------|

*Guitar Solo*


  
|-18---20--------------------------------------------------------------------|
|----------18--21--18--------------------------------------------------------|
|---------------------20-----17---20--17-------------------------------------|
|----------------------------------------------------------------------------|
|----------------------------------------------------------------------------|
|----------------------------------------------------------------------------|


  
|-------------------------18-16-15-16-15---13-11-13-15/16-----13--11--14----|
|---------------13--16------------------------------------------------------|
|-13--15-13-12--------------------------------------------------------------|
|---------------------------------------------------------------------------|
|---------------------------------------------------------------------------|
|---------------------------------------------------------------------------|

|-11---------------------------------------------------------------------------|
|-----14--13-14-13-11----------------------------------------------------------|
|---------------------13-12-13/12-----------13------12-----13------------------|
|------------------------------------------------------------------------------|
|------------------------------------------------------------------------------|
|------------------------------------------------------------------------------|


|---------------------------------11-----------------------------------------|
|-13----11-----------13----11------------------------------------------------|
|--------------13----------------------13------------------------------------|
|----------------------------------------------------------------------------|
|----------------------------------------------------------------------------|
|----------------------------------------------------------------------------|

|----------------------------------------------------------------------------|
|--------13------11-11-----15------13------11--------------------------------|
|-12-------------------------------------------------------------------------|
|----------------------------------------------------------------------------|
|----------------------------------------------------------------------------|
|----------------------------------------------------------------------------|


| /  slide up
| \  slide down
| h  hammer-on
| p  pull-off
| ~  vibrato
| +  harmonic
| x  Mute note
===============================================================================
Suggest correction
Give kudos to tab author, rate the tab!
1 2 3 4 5
comments
print report bad tab
guest
You may want to rate the tab now too:
select rating
Wanna post a correction for this tab? Suggest correction