Oops, an error
Loading. Please wait.

Ah Yom Tab

version 1
version 1

Whole song

8,178 views 6 this week
no commentswrite comment
1 2 3 4 5
x 3
add to favorites
launch autoscroll
font size
0
reset
how to read this tab
guitar tuner
Autoscroll
slow
fast
+/-
esc
set tempo
stop
Help us to improve Ultimate-Guitar.com Take our survey!
×
Author
Ah Yom

tabbed by Flavien
bustafla@hotmail.com

Eb*  Bb* F*  Cm*  Gm*
e---------------------------|
B----8----6---10---8---(11)-|
G----8----7---10---8----12--|
D----8----8---10--10----12--|
A----6----8----8--10----10--|
E---------6--------8--------|


           Bb          F     Cm
I've got a million to choose from

	   Bb	            F   Cm
A million ways things could be

	 Bb	   F     Cm
In dull moments I feel like

                  Bb        F  Cm Gm  G
There's a million options I see

    Eb*         Bb* F*  Cm*
The trouble is choosing one

    Eb*         Bb* F*Cm*
The trouble is doing one


e---------------------/----------------13-15-|
B-15------13----------/--15-------13---------|
G----15------14----12-/-----15-------14------|
D-------15------15----/--------15------------|
A---------------------/----------------------|
E---------------------/----------------------|

   Bb           F         Cm
A slave in the fields one night

    Bb          F    Cm
He's running along

e----------------------------/-----------------------|
B-15------13-----------------/-----------------------|
G----15------14----12b13 12r-/--15-------14----------|
D-------15------15-----------/-----15-------15----12-|
A----------------------------/--------15-------15----|
E----------------------------/-----------------------|


         Bb             F    Cm
Gets far enough to be a free man

         Bb             F    Cm Gm   G
And he's feeling so strong

Eb*                       Bb  F*    Cm
That's how actions should be        freeing

Cm         Eb*         Bb    F*	       Cm   Gm  Cm
Step after step is our only choice in a walk

        Cm         Eb*           Bb       F*   Cm  Gm  Cm
When we run at the mouth we jump back and forth

(with wah-wah  D--11b12-15~~ --11b12-15~~)


e-----------------------/----------------13-15-|
B-15------13------------/--15-------13---------|
G----15------14----12~~-/-----15-------14------|
D-------15------15------/--------15------------|
A-----------------------/----------------------|
E-----------------------/----------------------|

             Bb            F     Cm
There's only one place I'm going

             Bb        F   Cm
There's only one destiny


e----------------------------/-------------------------|
B-15------13-----------------/-------------------------|
G----15------14----12b13 12r-/--15-------14------------|
D-------15------15-----------/-----15-------15----12~~-|
A----------------------------/--------15-------15------|
E----------------------------/-------------------------|

           Bb           F     Cm
And if my mind tells me otherwise

            Bb             F    Cm Gm  G
Then it's a poor guide for me

Eb*            Bb  F*  Cm
All of the energy   in life

Cm          Eb*        Bb         F*   Cm   Gm Cm
Is nothing more than a spark in a fire

    Cm              Eb*         Bb          F*   Cm   Gm Cm
The whole course of time is the blink of an eye

Eb*         Bb*   F* Cm*
Rain in the slums Ah Yom

Eb*         Bb*   F*Cm* F*
Into the cards Ahm Yum

Eb*         Bb*   F* Cm*
Rain in the slums Ah Yom

Eb*    Bb*   F* Cm*  (Cm*)Gm*
Into another world    Ahm Yum
Suggest correction
Give kudos to tab author, rate the tab!
1 2 3 4 5
comments
print report bad tab
guest
You may want to rate the tab now too:
select rating
Wanna post a correction for this tab? Suggest correction