Oops, an error
Loading. Please wait.

Anne Tab

version 1
version 1

Whole song

Interactive

104,629 views 174 this week
7 commentsread comments
1 2 3 4 5
excellent!
x 28
add to favorites
launch autoscroll
font size
0
reset
how to read this tab
guitar tuner
Autoscroll
slow
fast
+/-
esc
set tempo
stop
Help us to improve Ultimate-Guitar.com Take our survey!
×
Author
Author/Artist: John Frusciante
Title: Anne
Album: Curtains
Transcribed by: Christian Pietz
Email: experience-hendrix@web.de
Submitted to UG by: Dan Bogosian (UtBDan)
Email: dantheman3k@yahoo.com
Visit UtBDan's band's website at:
http://www.geocities.com/underthbed

For correct strumming, you have to listen
to the song. And use your fingers, no hybrid picking.

e|--------------------2---------------------------------------------------------|
B|-2-----0-----2------3---------------------------------------------------------|
G|-2-----1-----2------2---------------------------------------------------------|
D|-2-----2-----4------0---------------repeat...---------------------------------|
A|-0----------------------------------------------------------------------------|
E|-------0-----2----------------------------------------------------------------|
             T  (...use your thumb)

Anne you can't hide....

e|------------------------------------------------------------------------------|
B|-6-----3-----3-3-----2-2------------------------------------------------------|
G|-7-----0-----3-3-----2-2------------------------------------------------------|
D|(6)----0----(3-3)---(2-2)-----------repeat...---------------------------------|
A|-5-----1----------------------------------------------------------------------|
E|-------------1-------0--------------------------------------------------------|
I Never Got The Weight Off The Ground...

e|------------------------------------------------------------------------------|
B|-11----8-----8-8-----7-7------------------------------------------------------|
G|-12----7-----7-7-----7-7------------repeat...---------------------------------|
D|------------------------------------------------------------------------------|
A|-10---------------------------------------------------------------------------|
E|-------7-----6-------5--------------------------------------------------------|
       T     T       T

How Many Get The Way I Feel Now...

e|------------------------------------------------------------------------------|
B|-3-----3-----4-------3--------------------------------------------------------|
G|-3-----0-----5-------5--------------repeat...---------------------------------|
D|------------------------------------------------------------------------------|
A|-------1-------------5--------------------------------------------------------|
E|-3-----------5----------------------------------------------------------------|
 T           T

Nothing Is Coming My Way...

e|--------------------------3---------------------------------------------------|
B|-------3-----3---------3--4-------------3-----3-------------------------------|
G|-3-------3-2---2-0-----3--------------3---3-2---2-0-2-3-2---------------------|
D|----------------------------------------------------------3-1------4--repeat--|
A|-------------------------------------------------------------------5----------|
E|------------------------------------------------------------------------------|
Hmmm.....The Gods Of The City....


e|------------------------------------------------------------------------------|
B|-3--------------1-------------8-------------3---------------------------------|
G|-3--------------2-------------9-------------3---------------------------------|
D|-5--------------3-------------8-------------5---------repeat...---------------|
A|-5--------------3-------------10------------5---------------------------------|
E|-3--------------1-------------8-------------3---------------------------------|
...cause it seems all the while


e|-----------------------3-------------------3----------------------------------|
B|-1------3-------4------3------1------3-----3-----1-----8----------------------|
G|-2------3-------5------3------2------3-----3-----2-----9----------------------|
D|-3------5-------5------5------3------5-----5-----3-----8----------------------|
A|-3------5--------------6------3------5-----6-----3-----10---------------------|
E|-1------3-------5-------------1------3-----------1-----8----------------------|
...me --  they give me disease....


e|-3----------------------------------------------------------------------------|
B|-3------1-------3------1------------------------------------------------------|
G|-3------2-------3------2------------------------------------------------------|
D|-5------3-------5------3------------------------------------------------------|
A|-6------3-------5------3------------------------------------------------------|
E|--------1-------3------1------------------------------------------------------|

e|----------------3--------------------------------------3----------------------|
B|----------------3------------------8-------------------3------1---4-----------|
G|-3------2-------3------3-----2-----9---------3----2----3------2---2-----------|
D|-5------3-------5------5-----3-----8---------5----3----5------3---1-----------|
A|-5------3-------5------5-----3-----10--------5----3----5------3---3-----------|
E|-3------1--------------3-----1-----8---------3----1----3------1---1-----------|
(Guitar Solo...)


e|----------------3--------------------------------------3----------------------|
B|----------------3------------------8-------------------3------1---------------|
G|-3------2-------3------3-----2-----9---------3----2----3------2---------------|
D|-5------3-------5------5-----3-----8---------5----3----5------3---------------|
A|-5------3-------5------5-----3-----10--------5----3----5------3---------------|
E|-3------1--------------3-----1-----8---------3----1----3------1---------------|
repeat.... but last time ends with...


e|---------------|
B|---3-----------|
G|---3-----------|
D|---5-----------|
A|---6-----------|
E|---------------|
Suggest correction
What's this?
You can suggest a correction to this tab. Community and Mods will review your correction and vote to approve or reject it.
comments
print report bad tab
7 comments total. Showing first comments.
+4 reply
sadistic_monkey 731 wrote on July 10 2006, 05:30 pm

Very good tab, I've found one tiny error.

In the "...cause it seems all the while", i got the first chord as

x
3
3
5
6
x

where yours was a Gm. Well, it sounds better when I play it that way anyway.

The rest is perfect

0 reply
TerpsRHCP 808 wrote on December 24 2007, 05:01 pm

nice tab this is perfect.

0 reply
Sanjezz 210 wrote on July 13 2008, 10:02 pm

nice tab dude, totally right on

guest
You may want to rate the tab now too:
select rating
Please do not post tabs as comments. Select "correction" instead!