Oops, an error
Loading. Please wait.

Anne Tab

version 3
version 3

Whole song

Interactive

473 views 1 this week
no commentswrite comment
1 2 3 4 5
please rate
add to favorites
launch autoscroll
font size
0
reset
how to read this tab
guitar tuner
Autoscroll
slow
fast
+/-
esc
set tempo
stop
Help us to improve Ultimate-Guitar.com Take our survey!
×
Author
Difficulty
advanced
A              E
Anne you can't hide
    F#m        D
you know we'll find you
       A            E
It's a matter where pride
      F#m     D
flies out the window


Dm      A#6th   F/A#       E/A        
I never got the weight off the ground
Dm        A#6th      F/A#   E/A 
I just forgot what's up and what's down


|--------------------------------|
|11-------8-------8---8-7----7---|
|12-------7-------7---7-7----7---|
|--------------------------------|
|10------------------------------|
|---------7-------6-----5--------|
 How many get the way I feel now?

There's no regret, there's just the sense that



|--------------------------------|
|3----------3--------4--------3--|
|3----------0--------5--------5--|
|--------------------------------|
|-----------1-----------------5--|
|3-------------------5-----------|
 Nothing is going my way

There's so much that happened today


|-----------------------------3---------------------------------------------------|
|----------3-----3---------3--4-------------3-----3-------------------------------|
|----3-------3-2---2-0-----3--------------3---3-2---2-0-2-3-2---------------------|
|-------------------------------------------------------------3-1------4----------|
|----------------------------------------------------------------------5----------|
|---------------------------------------------------------------------------------|
 Hmmmmmm...

The gods of the city have called my name

It means more to them than it means to me somehow

I left my body, I left my fate

But it is so hard to keep away now

                   Gm       F             C7      Gm
Nothing is final because it seems all the while

There wasn't anything for me 
Gm       F        C7     Gm
I always faked my smile
                                                F
There's so many careless angels responsible for me

               Gm
They give me disease
     C7        D#*        F            Gm
They give me a pain in my neck to feed off me
       D#*        F        C7
saying pay us the cost and we'll be gone
    D#*          F          Gm        F
now they shut my eyes and I can't see now

(Guitar solo)
Gm F Gm    Gm F C7

Gm F Gm    F    F7*

Gm            F           Gm
These are the times I was scared of
Gm            F              C7
These are the fates I pushed out of the way
Gm            F             Gm
Now they come back here and haunt me 
     F    F7*             Gm         F          Gm
It's plain to see who the winner and loser will be

(Outro)

Gm F C7

Gm F Gm    F    F7*

Gm F Gm    Gm F C7

Gm F Gm    F    D#*


Chords:

       A#6th     F/A#     E/A      D#*      F7*
|-----------------------------------3--------1--------|
|--------3--------3--------2--------3--------4--------|
|--------0--------3--------2--------3--------2--------|
|--------0--------3--------2--------5--------1--------|
|--------1--------------------------6--------3--------|
|-----------------1--------0-----------------1--------|
Suggest correction
Give kudos to tab author, rate the tab!
1 2 3 4 5
comments
print report bad tab
guest
You may want to rate the tab now too:
select rating
Please do not post tabs as comments. Select "correction" instead!