Oops, an error
Loading. Please wait.

Before The Beginning Tab

version 2
version 2

Whole song

Interactive

15,077 views 135 this week
6 commentsread comments
1 2 3 4 5
excellent!
x 31
add to favorites
launch autoscroll
font size
0
reset
how to read this tab
guitar tuner
Autoscroll
slow
fast
+/-
esc
set tempo
stop
Help us to improve Ultimate-Guitar.com Take our survey!
×
Author
Tuning
E A D G B E
John Frusciante - Before The Beginning


Tabbed by Avi Yaacove
Israel, August 17, 2013


So here’s a masterpiece of beauty by an amazing human being, thank you John!




e|---------|--------------------------|------------|------------------|
B|--15b17--|--15b17r15--12--15-15-12--|--15--------|------------------|
G|---------|--------------------------|------------|--16b---16b17r16--|
D|---------|--------------------------|-----12-14--|------------------|
A|---------|--------------------------|------------|------------------|
E|---------|--------------------------|------------|------------------|


e|----------------------|------------|--------------------------|
B|--17b19r17--15-15-----|--17--------|-----------15-------------|
G|------------------16--|------------|--16vv--------16b17r16vv--|
D|----------------------|-----12-14--|--------------------------|
A|----------------------|------------|--------------------------|
E|----------------------|------------|--------------------------|


e|---------------19vv--|------------|--19b20--|--19b20r19v--|
B|--17b19r17-15--------|--15-17vvv--|---------|-------------|
G|---------------------|------------|---------|-------------|
D|---------------------|------------|---------|-------------|
A|---------------------|------------|---------|-------------|
E|---------------------|------------|---------|-------------|


e|--17b19r17--15-17-17-15vv--|--/17----------|--21b23--20-19--|
B|---------------------------|------15-17vv--|----------------|
G|---------------------------|---------------|----------------|
D|---------------------------|---------------|----------------|
A|---------------------------|---------------|----------------|
E|---------------------------|---------------|----------------|


e|---------|-------|---------|--------------|------------|
B|---------|-------|---------|--------------|------------|
G|--7h9vv--|--7vv--|--7-6-5--|----4bvv------|------------|
D|---------|-------|---------|--5-------5v--|-----5vv----|
A|---------|-------|---------|--------------|----|
E|---------|-------|---------|--------------|------------|
                                             



e|---------|--------------------------|------------|-------------------------------|
B|--15b17--|--15b17r15--12--15-15-12--|--15--------|-------------------------------|
G|---------|--------------------------|------------|--16b17r16-----16b17r16--------|
D|---------|--------------------------|-----12-14--|-----------17-----------17vvv--|
A|---------|--------------------------|------------|-------------------------------|
E|---------|--------------------------|------------|-------------------------------|


e|----------------|---------------------|-----------------------|
B|----------------|---------------------|-----------------------|
G|----------------|---------------------|--16b1716----------9~--|
D|--16--/19-17vv--|--19b20r19--12-14vv--|-------------------9~--|
A|----------------|---------------------|-----------17/-----7~--|
E|----------------|---------------------|-------------------0~--|


e|---------------|---------|---------------|---------------|
B|---------------|---------|---------------|-----15-17-----|
G|---------------|--7-6-5--|-/9vv--/16vvv--|--16-----------|
D|---7b8r7--5vv--|---------|---------------|---------------|
A|---------------|---------|---------------|--< repeat >---|
E|---------------|---------|---------------|--< 5 times >--|


e|-----------------------------------|-------------------------------------------|
B|--17b19-----17-15-15b17r15---------|--15-14-13---------------------------------|
G|---------------------------16-16v--|--------------16b17r16-12---16b17r16-12vv--|
D|-----------------------------------|-------------------------------------------|
A|-----------------------------------|-------------------------------------------|
E|-----------------------------------|-------------------------------------------|


e|------------------|---------|----------------|----------------|-------------------|
B|------------------|---------|--12^^----------|----------------|-------------------|
G|--11vv--/14--12v--|---------|----------------|----------------|------11v--14-12v--|
D|------------------|--12-14--|-------12h14vv--|--12h14---------|--/14--------------|
A|------------------|---------|----------------|--< feedback >--|-------------------|
E|------------------|---------|----------------|---< repeat >---|-------------------|


e|----------------------------------------------------------------------|
B|----------------------------------------------------------------------|
G|--14---------------------------------------------------------12-------|
D|-----12-14vv---12h14-12/14--12h14-12/14--12h14-12/14---12h14----14vv--|
A|----------------------------------------------------------------------|
E|----------------------------------------------------------------------|


e|--17b19r17--15-17-17-15vv--|--/17----------|---------------------|
B|---------------------------|------15-17vv--|--15h17-15----15-----|
G|---------------------------|---------------|-----------16----16--|
D|---------------------------|---------------|---------------------|
A|---------------------------|---------------|---------------------|
E|---------------------------|---------------|---------------------|


e|----------------------------|--------------|------------|-----------------------|
B|----------------------------|--------------|------------|-----------------------|
G|--14h16-14h16-14h16-14h16---|--14^^--12vv--|--14--------|-----------------------|
D|--< feedback sounds like >--|--------------|-----12-14--|--14~--14~---14~--14~--|
A|----------------------------|--------------|------------|-----------------------|
E|----------------------------|--------------|------------|-----------------------|



e|-----------------|-------------|--------------------|--------------------------|
B|-----------------|-------------|--------------------|--17b19r17-15--/17-15-----|
G|-----------------|-------------|--16b17hold---16vv--|----------------------16--|
D|--14b15/19-17vv--|--19^--------|--------------------|--------------------------|
A|-----------------|------17-19--|--------------------|--------------------------|
E|-----------------|-------------|--------------------|--------------------------|

e|-----------------|--------------|-------------------|------------------|
B|--15-14-13---13--|--------------|-------------------|------------------|
G|-----------------|--16^---------|-------------------|------------------|
D|-----------------|--------------|-------------------|-----7-5vv--------|
A|-----------------|-------5h7vv--|--5h7-5h7-5h7-5h7--|--/9---------5-7--|
E|-----------------|--------------|-------------------|------------------|


e|------------|-------------12---12---/19vv--|--17b19r17-15vv--|--15-17--------|
B|------------|-------/12------15------------|-----------------|--------15-17--|
G|------------|--7h9-------------------------|-----------------|---------------|
D|--9b10-9vv--|------------------------------|-----------------|---------------|
A|------------|------------------------------|-----------------|---------------|
E|------------|------------------------------|-----------------|---------------|


e|--/20vv---20b22r20-19-19--|--21b24--21b24r21-20----21b22-21-19--|--19b20--|
B|--------------------------|-------------------------------------|---------|
G|--------------------------|-------------------------------------|---------|
D|--------------------------|-------------------------------------|---------|
A|--------------------------|-------------------------------------|---------|
E|--------------------------|-------------------------------------|---------|


e|------------|--------------|----------------------|-------|
B|--17-15-17--|--15-17-17~---|--17-17-17-17-17-15v--|--15b--|
G|------------|--< repeat >--|----------------------|-------|
D|------------|--------------|----------------------|-------|
A|------------|--------------|----------------------|-------|
E|------------|--------------|----------------------|-------|


e|-----------------------|----------------------|------------|----------------------|
B|-------------12--------|--15b17r15--12-15-12--|--15--------|--15b17r15--12-15-12--|
G|--15--14p12-----14p12--|----------------------|------------|----------------------|
D|-----------< repeat >--|----------------------|-----12-14--|----------------------|
A|-----------------------|----------------------|------------|----------------------|
E|-----------------------|----------------------|------------|----------------------|


e|---------------------|------------|--------------|---------|
B|--19vv--15-15h17-15--|--15-14-13--|--12h13-------|---------|
G|---------------------|------------|--< repeat >--|---------|
D|---------------------|------------|--(feedback)--|--12h14--|
A|---------------------|------------|--------------|---------|
E|---------------------|------------|--------------|---------|



e|--------|-------------------------|------------|------------------|
B|--------|-------------------------|------------|--12b13r12--------|
G|--------|------14-14b15r14-12-12--|--14--------|------------------|
D|--14vv--|--/16--------------------|-----12-14--|-----------12h14--|
A|--------|-------------------------|------------|------------------|
E|--------|-------------------------|------------|------------------|


e|--------|-------------------------|------------|------------------------|
B|--------|-------------------------|--15-14-13--|--17-15-17----17-15-17--|
G|--------|------14-14b15r14-12-12--|------------|------------------------|
D|--14vv--|--/16--------------------|------------|------------------------|
A|--------|-------------------------|------------|------------------------|
E|--------|-------------------------|------------|------------------------|


e|--------------|--------17b-15vv--|--15^------|----------19b20/----------|
B|--15-17-17----|--17b19-----------|--upward---|--15-17-------------------|
G|--< repeat >--|------------------|---slowly--|---------------------9~---|
D|--------------|------------------|----bend---|---------------------9~---|
A|--------------|------------------|-----------|---------------------7~---|
E|--------------|------------------|-----------|--------------------------|


e|----------|-------|---------|-------------------|
B|----------|-------|---------|-------------------|
G|----------|-------|---------|--14b15r12---------|
D|----------|---0---|----14b--|-----------14vvv---|
A|--5h7vvv--|-------|---------|-------------------|
E|----------|-------|---------|-------------------|



Well goodness, I hope you enjoy this, it took some work for sure to tab it all out...
:)
Suggest correction
comments
print report bad tab
6 comments total. Showing first comments.
+1 reply
Hunter15D 10 wrote on October 24 2013, 09:51 pm

This is great, thanks!

+2 reply
jesus.quiroz.31 10 wrote on December 23 2013, 01:58 am

Thank you Man, I appreciate all the hard work you put into it solid man.

0 reply
HunterHach 10 wrote on April 4 2014, 08:43 pm

Incredible.

guest
You may want to rate the tab now too:
select rating
Please do not post tabs as comments. Select "correction" instead!