Oops, an error
Loading. Please wait.

Carvel Bass Tab

version 1
version 1

Whole song

Interactive

3,147 views 6 this week
no commentswrite comment
1 2 3 4 5
x 4
add to favorites
launch autoscroll
font size
0
reset
guitar tuner
Autoscroll
slow
fast
+/-
esc
set tempo
stop
Help us to improve Ultimate-Guitar.com Take our survey!
×
Author
Difficulty
novice
  ahhhhhh......
G -----------------------|
D -----------------------|
A -2-2-2-----------------|
E -------2-2-3-3-3-3-3---|   (X4)

  when i try...
G ---------------------|
D ---------------------|
A -2-2-2---------------|
E -------2-2-3-3-3-3-3-|

G --------------------|
D --------------------|
A -2-2-2--------------|
E -------2-2-3-3-3-5--|

  now is the time...
G --------------------|
D --------------------|
A -5-5-5--------------|
E -------5-5-2-2-3-5--|   (X2)

  running me out...
G ---------------------|
D ---------------------|
A -2-2-2---------------|
E -------2-2-3-3-3-3-3-|

  wishing the best...
G --------------------|
D --------------------|
A -2-2-2--------------|
E -------2-2-3-3-3-5--|

  would only get...
G --------------------|
D --------------------|
A -5-5-5--------------|
E -------5-5-2-2-3-5--|   (X2)

  sending a dummy...
G --------------------|
D --------------------|
A --------------------|
E -5-5-5-3-3-3--------|   (X3)

G --------------------|
D --------------------|
A --------------------|
E -5-5-5-2-2-3-5------|

  ahhhhhh......
G -----------------------|
D -----------------------|
A -2-2-2-----------------|
E -------2-2-3-3-3-3-3---|   (x3)

G --------------------|
D --------------------|
A -2-2-2--------------|
E -------2-2-3-3-3-5--|

  driving to eat...
G --------------------|
D --------------------|
A -5-5-5--------------|
E -------5-5-2-2-3-5--|  (x2)

             ahhhhh..
G --------------------|
D --------------------|
A --------------------|
E --2--2-2-2--2-2--2--|

        have you gone..
G --------------------|
D --------------------|
A --------------------|
E -5-5-6-6-6-6--------|

G ----------------------------|
D ----------------------------|
A -2-2-2--5-5-5---------------|
E --------------5-5---3--3-3--|  (x2)

  guitar solo
G ----------------------------|
D ----------------------------|
A -2-2-2--5-5-5---------------|
E --------------5-5---3--3-3--|  (x2)

  have you gone...
G ----------------------------|
D ----------------------------|
A -2-2-2--5-5-5---------------|
E --------------5-5---3--3-3--|  (x7)

               all the good..
G --------------------------|
D --------------------------|
A -2-2-2-0-0-0--------------|
E -------------2--5--7------|

G ----------------------------|
D ----------------------------|
A -2-2-2--5-5-5---------------|
E --------------5-5---3--3-3--|  (x2)

  up and down...

G ----------------------------|
D ----------------------------|
A -2-2-2--5-5-5---------------|
E --------------5-5---3--3-3--|  (x3)

        and i wouldn't have..
G --------------------------|
D --------------------------|
A -2-2-2-0-0-0--------------|
E -------------2--5--7------|

  way...
G --------------------------|
D --------------------------|
A -5-5----------------------|
E -----5-5-7-7--3-3---------|  (X3)

  (ending)
G --------------------------|
D --------------------------|
A -5-5-----5----------------|
E -----5-5------------------|
Suggest correction
comments
print report bad tab
guest
You may want to rate the tab now too:
select rating
Wanna post a correction for this tab? Suggest correction