Oops, an error
Loading. Please wait.

Carvel Tab

version 1
version 1

Solo

Whole song

Interactive

4,070 views 9 this week
1 commentread comment
1 2 3 4 5
x 4
add to favorites
launch autoscroll
font size
0
reset
how to read this tab
guitar tuner
Autoscroll
slow
fast
+/-
esc
set tempo
stop
Help us to improve Ultimate-Guitar.com Take our survey!
×
Author
                              CARVEL
                        BY JOHN FRUSCIANTE
                  FROM "SHADOWS COLLIDE WITH PEOPLE"

                       TABBED BY GUITARSIDE

  Here is the short, but very cool solo of carvel.

  |---------------------------------------------------------|
  |------------------------10-12----------------------------|
  |----7-9-11---7-9-11\9-7----------7-9-11---7-9-11\9-7-4-6-|
  |--9--------9-------------------9--------9------------5-7-|
  |---------------------------------------------------------|
  |---------------------------------------------------------|


 I hope you like it. please send comments an rate it!
Suggest correction
comments
print report bad tab
1 comment total.
+1 reply
guitarguy987651 10 Jul 03, 2014 10:25 PM

I think it should be

|---------------------------------------------------------|
|------------------------10-12----------------------------|
|----7-9-11---7-9-11\9-7----------7-9-11---7-9-11\9-7-6-4-|
|--9--------9-------------------9--------9------------7-5-|
|---------------------------------------------------------|
|---------------------------------------------------------|

and the second time he does the solo:

|----------------------------------------------------------|
|------------------------10-12-----------------------------|
|----7-9-11---7-9-11\9-7----------7-9-11---7-9-11\9-7-6b-4-|
|--9--------9-------------------9--------9------------7b-5-|
|----------------------------------------------------------|
|----------------------------------------------------------|

guest
You may want to rate the tab now too:
select rating
Wanna post a correction for this tab? Suggest correction