Oops, an error
Loading. Please wait.

Carvel Tab

version 1
version 1

Whole song

Interactive

16,821 views 21 this week
4 commentsread comments
1 2 3 4 5
excellent!
x 11
add to favorites
launch autoscroll
font size
0
reset
how to read this tab
guitar tuner
Autoscroll
slow
fast
+/-
esc
set tempo
stop
Help us to improve Ultimate-Guitar.com Take our survey!
×
Author
Difficulty
novice
"Carvel"
John Frusciante
Tabbed by James Olley

Intro
"Ahhh ah ahhh ah ah ahhh"
e|---7-7-7-7---2-2---3-3-3-3-3-3-3---|
B|---7-7-7-7---2-2---3-3-3-3-3-3-3---|
G|---7-7-7-7---2-2---4-4-4-4-4-4-4---| x4
D|---9-9-9-9---4-4---5-5-5-5-5-5-5---|
A|---9-9-9-9---4-4---5-5-5-5-5-5-5---|
E|---7-7-7-7---2-2---3-3-3-3-3-3-3---|

Verse
"When I try to Force it Out"
e|---7-7-7-7---2-2---3-3-3-3-3-3-3---|
B|---7-7-7-7---2-2---3-3-3-3-3-3-3---|
G|---7-7-7-7---2-2---4-4-4-4-4-4-4---|
D|---9-9-9-9---4-4---5-5-5-5-5-5-5---|
A|---9-9-9-9---4-4---5-5-5-5-5-5-5---|
E|---7-7-7-7---2-2---3-3-3-3-3-3-3---|

"Never looking in only out"
e|---7-7-7-7---2-2---3-3-3-3-3-3-3---5-5---|
B|---7-7-7-7---2-2---3-3-3-3-3-3-3---5-5---|
G|---7-7-7-7---2-2---4-4-4-4-4-4-4---6-6---|
D|---9-9-9-9---4-4---5-5-5-5-5-5-5---7-7---|
A|---9-9-9-9---4-4---5-5-5-5-5-5-5---7-7---|
E|---7-7-7-7---2-2---3-3-3-3-3-3-3---5-5---|

"Now is the time for Millions to lose..."
e|---5-5-5-5---5-5---2-2---3-3---|
B|---7-7-7-7---5-5---2-2---3-3---|
G|---7-7-7-7---6-6---2-2---4-4---|x2
D|---7-7-7-7---7-7---4-4---5-5---|
A|---5-5-5-5---7-7---4-4---5-5---|
E|-------------5-5---2-2---3-3---|

"Running me out of Town"
e|---7-7-7-7---2-2---3-3-3-3-3-3-3---|
B|---7-7-7-7---2-2---3-3-3-3-3-3-3---|
G|---7-7-7-7---2-2---4-4-4-4-4-4-4---|
D|---9-9-9-9---4-4---5-5-5-5-5-5-5---|
A|---9-9-9-9---4-4---5-5-5-5-5-5-5---|
E|---7-7-7-7---2-2---3-3-3-3-3-3-3---|

"Wishing the best around"
e|---7-7-7-7---2-2---3-3-3-3-3-3-3---5-5---|
B|---7-7-7-7---2-2---3-3-3-3-3-3-3---5-5---|
G|---7-7-7-7---2-2---4-4-4-4-4-4-4---6-6---|
D|---9-9-9-9---4-4---5-5-5-5-5-5-5---7-7---|
A|---9-9-9-9---4-4---5-5-5-5-5-5-5---7-7---|
E|---7-7-7-7---2-2---3-3-3-3-3-3-3---5-5---|

"Would only get off my back..."
e|---5-5-5-5---5-5---2-2---3-3---|
B|---7-7-7-7---5-5---2-2---3-3---|
G|---7-7-7-7---6-6---2-2---4-4---|x2
D|---7-7-7-7---7-7---4-4---5-5---|
A|---5-5-5-5---7-7---4-4---5-5---|
E|-------------5-5---2-2---3-3---|

“Sending a dummy to my god...”
e|---5-5--3-3--5-5--3-3--5-5--3-3--5-5--2-2-2-2--3-3-3-3---|
B|---5-5--3-3--5-5--3-3--5-5--3-3--5-5--2-2-2-2--3-3-3-3---|
G|---6-6--4-4--6-6--4-4--6-6--4-4--6-6--2-2-2-2--4-4-4-4---|
D|---7-7--5-5--7-7--5-5--7-7--5-5--7-7--4-4-4-4--5-5-5-5---|
A|---7-7--5-5--7-7--5-5--7-7--5-5--7-7--4-4-4-4--5-5-5-5---|
E|---5-5--3-3--5-5--3-3--5-5--3-3--5-5--2-2-2-2--3-3-3-3---|

"Ahhh ah ahhh ah ah ahhh"
e|---7-7-7-7---2-2---3-3-3-3-3-3-3---|
B|---7-7-7-7---2-2---3-3-3-3-3-3-3---|
G|---7-7-7-7---2-2---4-4-4-4-4-4-4---| x4
D|---9-9-9-9---4-4---5-5-5-5-5-5-5---|
A|---9-9-9-9---4-4---5-5-5-5-5-5-5---|
E|---7-7-7-7---2-2---3-3-3-3-3-3-3---|

“Driving to eat a carvel cake...”
e|---5-5-5-5---5-5---2-2---3-3---|   |--2--| Strum until
B|---7-7-7-7---5-5---2-2---3-3---|   |--2--| next verse
G|---7-7-7-7---6-6---2-2---4-4---|x2 |--2--|
D|---7-7-7-7---7-7---4-4---5-5---|   |--4--|
A|---5-5-5-5---7-7---4-4---5-5---|   |--4--|
E|-------------5-5---2-2---3-3---|   |--2--|


Verse 2 Intro
e|---7-7-7---5-5-5---5-5-5---3-3-3---|
B|---7-7-7---7-7-7---5-5-5---3-3-3---|
G|---7-7-7---7-7-7---6-6-6---4-4-4---|x4
D|---9-9-9---7-7-7---7-7-7---5-5-5---|
A|---9-9-9---5-5-5---7-7-7---5-5-5---|
E|---7-7-7-----------5-5-5---3-3-3---|

Solo 1(Played Over Verse 2 Intro)
e|---------------------------------------|
B|---------------------------10-12-------|
G|--------9-11-9----7-9-7----------------|
D|---9-12--------12-------12-------------|
A|---------------------------------------|
E|---------------------------------------|

e|---------------------------------------|
B|-----------------------------0---------|
G|--------9-11-9----7-9-7----6-7---------|
D|---9-12--------12-------12-7-----------|
A|---------------------------------------|
E|---------------------------------------|

Verse 2 “Have you gone, Have you gone away already”
e|---7-7-7---5-5-5---5-5-5---3-3-3---|
B|---7-7-7---7-7-7---5-5-5---3-3-3---|
G|---7-7-7---7-7-7---6-6-6---4-4-4---|
D|---9-9-9---7-7-7---7-7-7---5-5-5---|
A|---9-9-9---5-5-5---7-7-7---5-5-5---|
E|---7-7-7-----------5-5-5---3-3-3---|

Solo 2
e|---------------------------------------|
B|---------------------------10-12-------|
G|--------9-11-9----7-9-7----------------|
D|---9-12--------12-------12-------------|
A|---------------------------------------|
E|---------------------------------------|

e|---------------------------------------|
B|---------------------------------------|
G|--------9-11-9----7-9-7----6b-4--------|
D|---9-12--------12-------12-------------|
A|---------------------------------------|
E|---------------------------------------|

Verse 2 “Up and Down, Mmm that’s how energy stays alive”
e|---7-7-7---5-5-5---5-5-5---3-3-3---|
B|---7-7-7---7-7-7---5-5-5---3-3-3---|
G|---7-7-7---7-7-7---6-6-6---4-4-4---|
D|---9-9-9---7-7-7---7-7-7---5-5-5---|
A|---9-9-9---5-5-5---7-7-7---5-5-5---|
E|---7-7-7-----------5-5-5---3-3-3---|

Outro
e|---5-5--5-5--7-7-7--3-3-3---| |--5-5—-5-5—-5~--|
B|---7-7--5-5--7-7-7--3-3-3---| |--7-7—-5-5—-7~--|
G|---7-7--6-6--7-7-7--4-4-4---| |--7-7-—6-6—-7~--|
D|---7-7--7-7--9-9-9--5-5-5---| |--7-7-—7-7—-7~--|
A|---5-5--7-7--9-9-9--5-5-5---| |--5-5--7-7—-5~--|
E|--------5-5--7-7-7--3-3-3---| |-------5-5------|


Thats it. John Frusicante is an awesome guitarist but heres a pretty basic song to play.
Suggest correction
What's this?
You can suggest a correction to this tab. Community and Mods will review your correction and vote to approve or reject it.
comments
print report bad tab
4 comments total. Showing first comments.
+3 reply
Rambo-Conny 68 wrote on January 11 2007, 04:00 pm

Great tab! I have one suggestion, though.
I find it easier to play the second verse ("Have you gone, have you gone") with split up barré chords, using my thumb "Hendrix style". It's good to have a little break from all the barré chords, they can get pretty tiring. Like this:

e|------7--------10-----5---3----
B|------7--------10-----5---3----
G|------7--------11-----6---4----
D|------9--------12-----7---5----
A|--------------------------x----
E|--7-7----10-10-----5------3----
T T T T T T

"T" means thumb, obviously.

-1 reply
switchfoot0918 32 wrote on October 28 2007, 04:21 pm

the solo is wrong.

+2 reply
rhcp_92 19 wrote on May 13 2008, 06:08 pm

e|---------------------------------------
B|-------------------------------10-12---
G|--------9-11--------9-11p9-------------
D|---9-12------9--12---------12---------
A|--------------------------------------
E|--------------------------------------

e|---------------------------------------
B|---------------------------------------
G|--------9-11--------9-11p9-------------
D|---9-12------9-12----------12--11b 9---
A|--------------------------------------
E|-------------------------------------

I think that's the right solo. but good tab!

guest
You may want to rate the tab now too:
select rating
Please do not post tabs as comments. Select "correction" instead!