Oops, an error
Loading. Please wait.

Carvel Bass Tab

version 2
version 2

Whole song

Interactive

13 views 1 this week
no commentswrite comment
1 2 3 4 5
3 more votes to show rating
add to favorites
launch autoscroll
font size
0
reset
guitar tuner
Autoscroll
slow
fast
+/-
esc
set tempo
stop
Help us to improve Ultimate-Guitar.com Take our survey!
×
Author
Difficulty
Carvel - John Frusciante
Tabbed by Stancranford

Standard Tuning (EADG)

Synth Intro until 1:33

[Main Riff]

G|-----------------------| x4
D|-----------------------|
A|-2-2-2-----------------|
E|-------2-2-3-3-3-3-3-3-|

[Verse]

G|--------------------------------------------------------------------------------------|
D|--------------------------------------------------------------------------------------|
A|-2-2-2------------------2-2-2----------------5-5-5----------------5-5-5---------------|
E|-------2-2-3-3-3-3-3-3--------2-2-3-3-3-3-5--------5-5-2-2-2-3-5--------5-5-2-2-2-3-5-|


G|------------------------------------------------------------------------------------------|
D|------------------------------------------------------------------------------------------|
A|-2-2-2------------------2-2-2----------------5-5-5----------------5-5-5-------------------|
E|-------2-2-3-3-3-3-3-3--------2-2-3-3-3-3-5--------5-5-2-2-2-3-5--------5-5-2-2-2-3-3-3-3-|

[Bridge]

G|-----------------------------------------------------------------------------|
D|-----------------------------------------------------------------------------|
A|-----------------------------------------------------------------------------|
E|-5--5-5--3--3-3-3-5--5-5--3--3-3-3-5--5-5--3--3-3-3-5--5-5-5-2--2-2--3--3-3--|

[Main Riff]

G|-----------------------| x3 |---------------------|
D|-----------------------|    |---------------------|
A|-2-2-2-----------------|    |-2-2-2---------------|
E|-------2-2-3-3-3-3-3-3-|    |-------2-2-3-3-3-3-5-|

[Verse]

G|---------------------------------------------------------------------------------------------|
D|---------------------------------------------------------------------------------------------|
A|-5-5-5----------------5-5-5------------------------------------------------------------------|
E|-------5-5-2-2-2-3-5--------5-5-2-2-2-3-3-2-2--2-2-2-2--2-2--2-2-2-2--2-2--2-2-2-2--2-2--2-2-|

[Breakdown]

G|-------------------------------| x3 |----------------------------------|
D|-------------------------------|    |----------------------------------|
A|-2-2-2-2--5-5-5-5--------------|    |-2-2-2-2--5-5-5-5-----------------|
E|------------------5-5--3-3-3-3-|    |------------------5-5-5-3h5-3-3-3-|

G|-------------------------------| x6 |--------------------------------------|
D|-------------------------------|    |--------------------------------------|
A|-2-2-2-2--5-5-5-5--------------|    |-2-2-2-2--5-5-5-5---------------------|
E|------------------5-5--3-3-3-3-|    |------------------5-5--3--3-3-3-3-3-3-|

G|------------------------------------|
D|------------------------------------|
A|------------------------------------|
E|-0--0-0--0-0--5--5-5--5-5--2--2--3~-|

G|-------------------------------| x4 |--------------------------------------|
D|-------------------------------|    |--------------------------------------|
A|-2-2-2-2--5-5-5-5--------------|    |-2-2-2-2--5-5-5-5---------------------|
E|------------------5-5--3-3-3-3-|    |------------------5-5--3--3-3-3-3-3-3-|

G|------------------------------------|
D|------------------------------------|
A|------------------------------------|
E|-0--0-0--0-0--5--5-5--5-5--2--2--3~-|

[Outro]

G|--------------------| x3 |---------------|
D|--------------------|    |---------------|
A|-5-5----------------|    |-5-5-------5~--|
E|------5-5--7-7--3-3-|    |------5-5------|


************************************


| h   Hammer-on
| ~   let ring


************************************
Suggest correction
Give kudos to tab author, rate the tab!
1 2 3 4 5
comments
print report bad tab
guest
You may want to rate the tab now too:
select rating
Wanna post a correction for this tab? Suggest correction