Oops, an error
Loading. Please wait.

Carvel Chords

version 3
version 3

Whole song

Interactive

3,634 views 1 this week
2 commentsread comments
1 2 3 4 5
please rate
add to favorites
launch autoscroll
font size
0
reset
transpose
0
reset
display chords
guitar tuner
Autoscroll
slow
fast
+/-
esc
set tempo
stop
Help us to improve Ultimate-Guitar.com Take our survey!
×
Author
Verse:

Bm  A   G  6x
D  A  F#m G A 2x

verse 2x

bridge:

A G  3x

A F#m    G


Verse:

Bm  A   G

D  A  F#m G A

Bridge:
F#m               F#m

Verse:
Bm  D  A  G

Solo:

e|----------------------------------------------------------------|
B|---------------------------10-12--------------------------------|
G|-----9-10-----9-10-----9-10---------------9-10-------9-10-7-6-4-|
D|-9-12-----9-12-----9 12-------------9-12--------9-12------------|
A|----------------------------------------------------------------|
E|----------------------------------------------------------------|


Bridge:

A   F#m   D  Bm

Verse:
Bm  D  A  G

Solo:

e|----------------------------------------------------------------|
B|---------------------------10-12--------------------------------|
G|-----9-10-----9-10-----9-10---------------9-10-------9-10-7-6-4-|
D|-9-12-----9-12-----9 12-------------9-12--------9-12------------|
A|----------------------------------------------------------------|
E|----------------------------------------------------------------|

Brisge:
A   G   A    F#m  G

Ending:

D  A  Bm G
D  A   D(let ring out)
Suggest correction
Give kudos to tab author, rate the tab!
1 2 3 4 5
comments
print report bad tab
2 comments total.
0 reply
Carlson-online 147 wrote on June 29 2006, 01:29 pm

solos wrong it shud be

e|----------------------------------------------------------------|
B|---------------------------10-12--------------------------------|
G|-----9-11-----9-11--9-------------------------------------------|
D|-9-12-----9-12--------12----------------------------------------|
A|----------------------------------------------------------------|
E|----------------------------------------------------------------|

0 reply
jrcsgtpeppers 171 wrote on September 15 2009, 10:07 pm

[Ahhh]Bm F#m G (A)

[Now...]D A F#m G A
[Sending a Dummie...]A G [my God](F#m G)
Bm D A G
Em F F#m G
D A Bm G

Those are the chords... I don't wanna type the order... I'm too lazy...

guest
You may want to rate the tab now too:
select rating
Please do not post tabs as comments. Select "correction" instead!