Oops, an error
Loading. Please wait.

Falling tab

version 1
version 1

Whole song

8,877 views 1 this week
3 commentsread comments
1 2 3 4 5
x 4
add to favorites
×
Save as Personal and add changes to this tab that will be seen only by you. Learn more ›
×
You can save this tab as Personal to edit and correct it or add notes. All changes will be seen only by you. Learn more »
launch autoscroll
font size
0
reset
how to read this tab
guitar tuner
edit
Autoscroll
slow
fast
+/-
esc
set tempo
stop
these two parts are played througout the whole song, with some little variations that 
could figure out for phrase 2.  i use a capo on the 6th fret cause its just easier, and it 
better to have the strings ringing out as you change the chord.


phrase 1
|---------------------------------------------|
|---------------------------------------------|
|-----6-8-----6-8--------6-8-----6-8---6-8----|
|---------------------------------------------|
|-6-6-----6-6-----6-6--6-----6-6-----6--------|
|---------------------------------------------|

phrase 2
|------------------------6----|
|------------------------7----|
|-----------8------6---8------|
|-----8---8-----8----8--------|
|---9---6-----9---------------|
|-7---------------------------|
Suggest correction
Creating personal tab
Creating personal tab
You can edit any tab online and save it as your Personal.

You can edit, replace or remove any tab part or add personal notes – all changes will be seen only by you.

Personal tabs can be accessed anytime from any device, even offline.
Learn more »
comments
print report bad tab
3 comments total.
0 reply
soul_power 451 May 14, 2007 04:30 PM

Nice to see a tab up for this finally however i must say that the only part i couldnt figure oput (second part) sounds wrong. Good effort though.

0 reply
maxrox92 184 Jun 15, 2007 11:19 AM

yea i know the second part sounds off, but it has the same feel and i dont play it to the song.

+1 reply
HenryIsntMyName 10 Feb 13, 2008 07:27 AM

the real 2nd part is
phrase 2
|--------------------------------|
|------------11-------------7----|
|-----8------------10-----8--8---|
|---------11------------8--------|
|---9---9--------11--------------|
|-7-------------9----------------|

guest
You may want to rate the tab now too:
select rating
Wanna post a correction for this tab? Suggest correction