Oops, an error
Loading. Please wait.

Fallout Tab

version 4
version 4

Whole song

Interactive

52 views 1 this week
no commentswrite comment
1 2 3 4 5
1 last vote to show rating
add to favorites
launch autoscroll
font size
0
reset
how to read this tab
guitar tuner
Autoscroll
slow
fast
+/-
esc
set tempo
stop
Help us to improve Ultimate-Guitar.com Take our survey!
×
Author
Difficulty
intermediate
Artist: John Frusciante
Song: Fallout
Album: To Record Only Water For Ten Days
Part of the song: whole song

Tuning: Standard 
No Capo

[Chords]
   Dm    Gm     F     C    A#
e|--5--|--3--|--1--|--3--|--1--|
B|--6--|--3--|--1--|--5--|--3--|
G|--7--|--3--|--2--|--5--|--3--|
D|--7--|--5--|--3--|--5--|--3--|
A|--5--|--5--|--3--|--3--|--1--|
E|-----|--3--|--1--|-----|-----|

[Intro]

Guitar 1:
  Dm
e|---------|------8-10-|
B|-----5-6-|-----------|
G|---------|---10------| X4
D|---7-----|-8---------|
A|-5-------|-----------|
E|---------|-----------|

Guitar 2:
  Dm
e|----------|----------|----------|----------|
B|----------|----------|----------|----------|
G|----------|----------|----------|----------| X2
D|-10h12-12-|-10h12-12-|-10h12-12-|-10h12-12-|
A|----------|----------|----------|----------|
E|----------|----------|----------|----------|

[Verse]
  Dm
e|---------|------8-10-|
B|-----5-6-|-----------|
G|---------|---10------| X4
D|---7-----|-8---------|
A|-5-------|-----------|
E|---------|-----------|
  Carried thru the road so far alone
  Dm
e|---------|------8-10-|
B|-----5-6-|-----------|
G|---------|---10------| X4
D|---7-----|-8---------|
A|-5-------|-----------|
E|---------|-----------|
  Days glue themselves to what is wrong

  Gm        F         C         Gm        A#        F         C         Gm
e|-------6-|---------|---------|---------|---------|---------|---------|---------|
B|-----8---|-------6-|-------5-|-------3-|-------3-|-------1-|-------5-|-------3-|
G|---7-----|-----5---|-----5---|-----3---|-----3---|-----2---|-----5---|-----3---|
D|-5-------|---7-----|---5-----|---5-----|---3-----|---3-----|---5-----|---5-----|
A|---------|-8-------|-3-------|---------|-1-------|---------|-3-------|---------|
E|---------|---------|---------|-3-------|---------|-1-------|---------|-3-------|
  And soon the hills will swallow us up

  A#        F         C         Gm
e|---------|---------|---------|---------|
B|-------3-|-------1-|-------5-|-------3-|
G|-----3---|-----2---|-----5---|-----3---|
D|---3-----|---3-----|---5-----|---5-----|
A|-1-------|---------|-3-------|---------|
E|---------|-1-------|---------|-3-------|
  Plans will pass her

[Pre Chorus]

  Dm      F       C       Gm
e|-----5-|-----1-|-----3-|-3-3-3-3--3-3-|
B|-----6-|-----1-|-----5-|-3-3-3-3--3-3-|
G|-----7-|-----2-|-----5-|-3-3-3-3--3-3-| X2
D|-x-x-7-|-----3-|-x-x-5-|-5-5-5-5--5-5-|
A|-5-5-5-|-x-x-3-|-3-3-3-|-5-5-5-5--5-5-|
E|-x-x---|-1-1-1-|-x-x---|-3-3-3-3--3-3-|

  Dm      F       C       Gm
e|-----5-|-----1-|-----3-|-3-3-3-3--3-3-|
B|-----6-|-----1-|-----5-|-3-3-3-3--3-3-|
G|-----7-|-----2-|-----5-|-3-3-3-3--3-3-|
D|-x-x-7-|-----3-|-x-x-5-|-5-5-5-5--5-5-|
A|-5-5-5-|-x-x-3-|-3-3-3-|-5-5-5-5--5-5-|
E|-x-x---|-1-1-1-|-x-x---|-3-3-3-3--3-3-|
  Land on the walls is laid out

  Dm      F       C       Gm
e|-----5-|-----1-|-----3-|-3-3-3-3--3-3-|
B|-----6-|-----1-|-----5-|-3-3-3-3--3-3-|
G|-----7-|-----2-|-----5-|-3-3-3-3--3-3-|
D|-x-x-7-|-----3-|-x-x-5-|-5-5-5-5--5-5-|
A|-5-5-5-|-x-x-3-|-3-3-3-|-5-5-5-5--5-5-|
E|-x-x---|-1-1-1-|-x-x---|-3-3-3-3--3-3-|
  I know you're in pain

  Dm      F       C       Gm
e|-----5-|-----1-|-----3-|-3-3-3-3--3-3-|
B|-----6-|-----1-|-----5-|-3-3-3-3--3-3-|
G|-----7-|-----2-|-----5-|-3-3-3-3--3-3-|
D|-x-x-7-|-----3-|-x-x-5-|-5-5-5-5--5-5-|
A|-5-5-5-|-x-x-3-|-3-3-3-|-5-5-5-5--5-5-|
E|-x-x---|-1-1-1-|-x-x---|-3-3-3-3--3-3-|
  Train for the cause of staying down

  Dm      F       C       Gm
e|-----5-|-----1-|-----3-|-3-3-3-3--3-3-|
B|-----6-|-----1-|-----5-|-3-3-3-3--3-3-|
G|-----7-|-----2-|-----5-|-3-3-3-3--3-3-|
D|-x-x-7-|-----3-|-x-x-5-|-5-5-5-5--5-5-|
A|-5-5-5-|-x-x-3-|-3-3-3-|-5-5-5-5--5-5-|
E|-x-x---|-1-1-1-|-x-x---|-3-3-3-3--3-3-|
  It plays you out

[Chorus]

  Dm      F       C       Gm             Dm      F       C       Gm
e|-----5-|-----1-|-----3-|-3-3-3-3--3-3-|-----5-|-----1-|-----3-|-3-3-3-3--3-3-|
B|-----6-|-----1-|-----5-|-3-3-3-3--3-3-|-----6-|-----1-|-----5-|-3-3-3-3--3-3-|
G|-----7-|-----2-|-----5-|-3-3-3-3--3-3-|-----7-|-----2-|-----5-|-3-3-3-3--3-3-| X4
D|-x-x-7-|-----3-|-x-x-5-|-5-5-5-5--5-5-|-x-x-7-|-----3-|-x-x-5-|-5-5-5-5--5-5-|
A|-5-5-5-|-x-x-3-|-3-3-3-|-5-5-5-5--5-5-|-5-5-5-|-x-x-3-|-3-3-3-|-5-5-5-5--5-5-|
E|-x-x---|-1-1-1-|-x-x---|-3-3-3-3--3-3-|-x-x---|-1-1-1-|-x-x---|-3-3-3-3--3-3-|
  Fall out of love again                 Your dreams all end

[Outro]

  Dm
e|---------|------8-10-|---------|------8-10-|---------|------8-10-|-5-| 
B|-----5-6-|-----------|-----5-6-|-----------|-----5-6-|-----------|-6-|
G|---------|---10------|---------|---10------|---------|---10------|-7-|
D|---7-----|-8---------|---7-----|-8---------|---7-----|-8---------|-7-|
A|-5-------|-----------|-5-------|-----------|-5-------|-----------|-5-|
E|---------|-----------|---------|-----------|---------|-----------|---|
  Your dreams all end



***************
| h  hammer-on
| x  deadnote
***************

Notes: Frusciante in live versions plays only with an acoustic guitar but in the studio version you can hear 
       a midi playing some chords in the back, a second acoustic guitar playing a riff in the intro and a
       synthesizer doing some strange thing. 
       Fallout can be played ether with a electric or acoustic or classic guitar.
       I hope my tab will help you!
Suggest correction
Give kudos to tab author, rate the tab!
1 2 3 4 5
comments
print report bad tab
guest
You may want to rate the tab now too:
select rating
Wanna post a correction for this tab? Suggest correction