Oops, an error
Loading. Please wait.

Figure 9 Tab

16,257 views 6 this week
no commentswrite comment
1 2 3 4 5
x 11
add to favorites
launch autoscroll
font size
0
reset
how to read this tab
guitar tuner
Autoscroll
slow
fast
+/-
esc
set tempo
stop
Help us to improve Ultimate-Guitar.com Take our survey!
×
Author
Difficulty
intermediate
John Frusciante played a few guitar improvisations, one sounds like it's based on his song
called Penetrate Time ("Low Birds", "Lou Bergs").
Love this melody! Enjoy

C. Morgan

John Frusciante
Improvisation figure 8 and figure 9 from 2006

Figure 8. two note chord/melody idea
fingerstyle
E|------------------------|-------------------|------------------|----------|
B|-------10--------5------|--7---------14--14-|---10--------5----|---7h9p7--|
G|------------------------|-------------------|------------------|----------|
D|------------------------|-------------------|------------------|----------|
A|---9------9\--4----4-4/5|-----5--/12--12----|/9-----9\--4---4/5|-5--------|
E|------------------------|-------------------|------------------|----------|

Figure. 9 two note melody improvisation
fingerstyle
E|--------------|-----------------------------------|
B|-----10-------|---------------12/14--14-----14----|
G|---------9-9--|---11h13p11------------------------|
D|--------------|-----------------------------------|
A|--9-----------|-----------------------------------|
E|-------9------|10----------10-----------10--------|

E|------------12---12-|----9-----------------------|-------------------|
B|---10---------------|------------10h12p10---9h10-|---10--------------|
G|--------------------|----------------------------|-------------------|
D|--------------------|----------------------------|------------11-----|
A|--9----9------------|----------------------------|-9----9------------|
E|---------9-----9----|10---10--10---------10------|---------9-----9---|

E|-------------------------|-------9------------|----------------------|
B|-------------------------|----10---10------9--|-----10---------------|
G|------------11-11h13p11--|---------------9----|---11-----11----------|
D|--11/12-----12-----------|--------------------|---------------11-----|
A|-------------------------|--------------------|----------------------|
E|---9/10--10--------------|-9-----------9------|10-----10---10--------|
Suggest correction
comments
print report bad tab
guest
You may want to rate the tab now too:
select rating
Wanna post a correction for this tab? Suggest correction