Oops, an error
Loading. Please wait.

How Deep Is Your Love Tab

version 1
version 1

Whole song

Interactive

453,063 views 591 this week
27 commentsread comments
1 2 3 4 5
excellent!
x 67
add to favorites
launch autoscroll
font size
0
reset
how to read this tab
guitar tuner
Autoscroll
slow
fast
+/-
esc
set tempo
stop
Help us to improve Ultimate-Guitar.com Take our survey!
×
Author
Difficulty
intermediate
HOW DEEP IS YOUR LOVE
Originally Performed by the Bee Gees


Extremely nice rendition here.  After working out all the chords I can definitely
John missin' the progression at one point after learning it that same day.  Keep in mind that
plays most chords with his thumb wrapped around the neck of the guitar.
I believe this is as accurate as humanly possible. You can view the video here:
http://www.youtube.com/watch?v=UODlieJdQT4


Tabulature
----------
Elexis D. Poindexter
ed.poindexter@gmail.com

Time Signature: 4/4


[Intro]  

   Eb        Ebmaj7   Abmaj7   Bbsus4
e|---x----------------3-3---3----------------------------------------------|
B|-8-8-8-8---8-8-8-8--4-4-4-4--x-x-x---------------------------------------|
G|-8-8-8-8-7-7-7-7-7--5-5-5-5--8-8-8-8-------------------------------------| x2
D|-8-8-8-8---8-8-8----5-5-5----8-8-8---------------------------------------|
A|-6---------6-6------x--------8-8-8-8-------------------------------------|
E|--------------------4--------6-------------------------------------------|

"Aaaaah"
"Howwwaaa"


[Verse]

    Eb   Gm   Fm    Cm
e|---x---------------------------------------------------------------------|
B|---8----3----9-----x-----------------------------------------------------|
G|---8----3----10----x-----------------------------------------------------|
D|---8----5----10----x-----------------------------------------------------|
A|-6----5----8-----10------------------------------------------------------|
E|------3----------8-------------------------------------------------------|

"You know your eyes in the morning sun"

    Fm             Bbsus4
e|---x---------------------------------------------------------------------|
B|---9--x-x-x-x------------------------------------------------------------|
G|---10-x-x-x-x-----8-8-8-8------------------------------------------------|
D|---10-x-x-x-------8-8-8-8------------------------------------------------|
A|-8----------------8------------------------------------------------------|
E|----------------6--------------------------------------------------------|

"I feel you touch me in the pouring rain"

   Eb   Gm   Cm
e|---x---------------------------------------------------------------------|
B|---8----3----4-4---------------------------------------------------------|
G|---8----3----5-5---------------------------------------------------------|
D|---8----5----5-5---------------------------------------------------------|
A|-6----5----3-------------------------------------------------------------|
E|------3------------------------------------------------------------------|

"And the moment that you wander far from me"

   Fm        Bbsus4
e|-------------------------------------------------------------------------|
B|---1-1--1--4-4-4-4-------------------------------------------------------|
G|---3-3--3--3-3-3-3-------------------------------------------------------|
D|---3-3--3--x-x-x-x-------------------------------------------------------|
A|-3---------1-1---1-------------------------------------------------------|
E|-1-----------------------------------------------------------------------|

"I wanna feel you in my arms again"

   Ab         Gm     Fm     F5(Fm tonality)
e|-------------------------------------------------------------------------|
B|-4-4-4-4-4--3-3-3--1-1-1--6-6-6-6----------------------------------------|
G|-5-5-5-5-5--3-3-3--1-1-1--5-5-5-5----------------------------------------|
D|-6-6-6-6-6--5-5-5--3-3-3--3-3-3-3----------------------------------------|
A|-6-6-6-6-6--5-5-5--3-3-3-------------------------------------------------|
E|-4----------3-3-3--1-1-1-------------------------------------------------|

"And you come to me on a summer breeze"
"Keep me warm in your love and then softly leave"

    Gm        Bbsus4
e|-------------------------------------------------------------------------|
B|-3-3-3-3-3---------------------------------------------------------------|
G|-3-3-3-3-3--8-8-8-8-8----------------------------------------------------|
D|-5-5-5-5-5--8-8-8-8-8----------------------------------------------------|
A|-5-5-5-5-5--8-8-8-8-8----------------------------------------------------|
E|-3-3-3-3-3--6------------------------------------------------------------|

"And its me you need to show"


[Chorus]

   Eb        Ebmaj7   Abmaj7   Abm6
e|---x----------------3-3---3--4-4-4-4-------------------------------------|
B|-8-8-8-8---8-8-8-8--4-4-4-4--6-6-6-6-------------------------------------|
G|-8-8-8-8-7-7-7-7-7--5-5-5-5--4-4-4-4-------------------------------------|
D|-8-8-8-8---8-8-8----5-5-5----4-4-4---------------------------------------|
A|-6---------6-6------x----------------------------------------------------|
E|--------------------4----------------------------------------------------|

"How deep is your love, how deep is your love"
"I really need to learn"

   Eb       Gbmaj7   C7
e|---x------6-6-6-6--7-7-7-7---7-------------------------------------------|
B|-8-8-8-8--6-6-6-6--5-5-5-5-5-5-------------------------------------------|
G|-8-8-8-8--6-6-6-6--5-5-5-5-5-5-------------------------------------------|
D|-8-8-8-8--4-4-4-4--5-5-5-5-5---------------------------------------------|
A|-6-----------------3-3---------------------------------------------------|
E|-------------------------------------------------------------------------|

"Cause we're leaving in a world of fools"
"Breaking us down, when they all should let us.."

   Fm     Abm
e|-------------------------------------------------------------------------|
B|-1-1-1--4-4-4-4----------------------------------------------------------|
G|-3-3-3--4-4-4-4----------------------------------------------------------|
D|-3-3-3--5-5-5-5----------------------------------------------------------|
A|-3-3-3--5-5-5-5----------------------------------------------------------|
E|-1-1----4-4--------------------------------------------------------------|

"..be"
"We belong to you and me"

 Eb     Gm   Bbsus4             Eb
e|---x---------------------------------------------------------------------|
B|---8----3-----------------------8----------------------------------------|
G|---8----3--8-8-8-8-8-8-8-8-8--8-8----------------------------------------|
D|---8----5--8-8-8-8-8-8-8-8-8--8-8----------------------------------------|
A|-6----5----8-8-8-8-8-8-8-8-8--6-6----------------------------------------|
E|------3----6-6-6-----6---------------------------------------------------|

"La la la la la"
"Aaaaaaaaah"



************************************

| x  Dead note

************************************
Suggest correction
comments
print report bad tab
27 comments total. Showing first comments.
+3 reply
RedDemon 93 wrote on June 5 2006, 07:46 am

Eb Ebmaj7 Abmaj7 Db7

e|---x----------------3-3---3--4-4-4-4--------------------------|
B|-8-8-8-8---8-8-8-8--4-4-4-4--6-6-6-6--------------------------|
G|-8-8-8-8-7-7-7-7-7--5-5-5-5--4-4-4-4--------------------------|
D|-8-8-8-8---8-8-8----5-5-5----6-6-6----------------------------|
A|-6---------6-6------x-----------------------------------------|
E|--------------------4-----------------------------------------|

Sorry guys, in the chorus that chord is a Db7 not a Abm6

+2 reply
RedDemon 93 wrote on June 5 2006, 06:42 pm

Also the C7 is played like so:

e|-6-
B|-5-
G|-5-
D|-5-
A|-3-
E|---

the tab was rushed just a little :-)

0 reply
gunner83 10 wrote on June 7 2006, 08:01 am

thanx dude for posting i was searching for it when i saw that video couple of months back! frusciante rocks!!!

guest
You may want to rate the tab now too:
select rating
Please do not post tabs as comments. Select "correction" instead!