Oops, an error
Loading. Please wait.

Leap Your Bar tab

version 2
version 2

Whole song

Interactive

8,664 views 15 this week
1 commentread comment
1 2 3 4 5
x 3
add to favorites
×
Save as Personal and add changes to this tab that will be seen only by you. Learn more ›
×
You can save this tab as Personal to edit and correct it or add notes. All changes will be seen only by you. Learn more »
launch autoscroll
font size
0
reset
how to read this tab
guitar tuner
edit
Autoscroll
slow
fast
+/-
esc
set tempo
stop
This song is for piano but i've just transcribed it to guitar

Cheers :D


'Hannah go Leap your bar'            x2
E-------------------------------------]
B-------------------------------------]
G-------------------------------------]
D-----4--2-------------4--2-----------]
A---0-------4--4-----0------4--4------]
E-2----------------2------------------]

im gonna seperate this next bit into 2 guitars: Guitar one playing the lead and Guitar 
playing the bass :D

Guitar one

E-2--5--10--9--5--5--2--5--10--9--5--5--]
B---------------------------------------]
G---------------------------------------]
D---------------------------------------]
A---------------------------------------]
E---------------------------------------]

Guitar two

E---------------------------------------]
B---------------------------------------]
G---------------------------------------]
D---------------------------------------]
A---0--4----------------0--4------------]
E-2-------------------2-----------------]


' In the valleys noon the things that I can buy '
E-7--9--7--9--7--9--7--5--4--2--5-------]
B---------------------------------------]
G---------------------------------------]  REPEAT
D---------------------------------------]
A---------------------------------------]
E---------------------------------------]


' I was so Bad, I was so Bad '
E--2--2--2--------------2------------------]
B--2--2--2--------------3------------------]
G--2--2--2--1--1--1--1--2------------------]
D--4--4--4--2--2--2--2---------------------]
A--4--4--4--2--2--2--2---------------------]
E--2--2--2---------------------------------]

Guitar one

E-2--5--10--9--5--5--2--5--10--9--5--5--]
B---------------------------------------]
G---------------------------------------]
D---------------------------------------]
A---------------------------------------]
E---------------------------------------]

Guitar two

E---------------------------------------]
B---------------------------------------]
G---------------------------------------]
D---------------------------------------]
A---0--4----------------0--4------------]
E-2-------------------2-----------------]

this next part Iam going to seperate into 2 different parts guitar one playing the riff 
guitar two the chord played directly afterwards


 ' Endless the weeds you blink'
Guitar one
E---------------------------------------]
B---------------------------------------]
G-------7--6---------7--6---------------]
D-4--7---------4--7---------------------]
A---------------------------------------]
E---------------------------------------]

Guitar two

E-------------2-----------2-------------]
B-------------2-----------2-------------]
G-------------2-----------2-------------]
D-------------4-----------4-------------]
A-------------4-----------4-------------]
E-------------2-----------2-------------]

Guitar one

E-2--5--10--9--5--5--2--5--10--9--5--5--]
B---------------------------------------]
G---------------------------------------]
D---------------------------------------]
A---------------------------------------]
E---------------------------------------]

Guitar two

E---------------------------------------]
B---------------------------------------]
G---------------------------------------]
D---------------------------------------]
A---0--4----------------0--4------------]
E-2-------------------2-----------------]


' The Beloved Cars that went to where they went '
E-7--9--7--9--7--9--7--5--4--2--5-------]
B---------------------------------------]
G---------------------------------------]  REPEAT
D---------------------------------------]
A---------------------------------------]
E---------------------------------------]

' Life is so sad, Life is so sad '
E--2--2--2--------------2------------------]
B--2--2--2--------------3------------------]
G--2--2--2--1--1--1--1--2------------------]
D--4--4--4--2--2--2--2---------------------]
A--4--4--4--2--2--2--2---------------------]
E--2--2--2---------------------------------]

Guitar one

E-2--5--10--9--5--5--2--5--10--9--5--5--]
B---------------------------------------]
G---------------------------------------]
D---------------------------------------]
A---------------------------------------]
E---------------------------------------]

Guitar two

E---------------------------------------]
B---------------------------------------]
G---------------------------------------]
D---------------------------------------]
A---0--4----------------0--4------------]
E-2-------------------2-----------------]


'Hannah go fill your jar'            x2
E-------------------------------------]
B-------------------------------------]
G-------------------------------------]
D-----4--2-------------4--2-----------]
A---0-------4--4-----0------4--4------]
E-2----------------2------------------]


'Headed for the moon, the mission I can buy'
E-7--9--7--9--7--9--7--5--4--2--5-------]
B---------------------------------------]
G---------------------------------------]  REPEAT
D---------------------------------------]
A---------------------------------------]
E---------------------------------------]

' I never see you, I never see you '
E--2--2--2--------------2------------------]
B--2--2--2--------------3------------------]
G--2--2--2--1--1--1--1--2------------------]
D--4--4--4--2--2--2--2---------------------]
A--4--4--4--2--2--2--2---------------------]
E--2--2--2---------------------------------]

Guitar one

E-2--5--10--9--5--5--2--5--10--9--5--5--]
B---------------------------------------]
G---------------------------------------]
D---------------------------------------]
A---------------------------------------]
E---------------------------------------]

Guitar two

E---------------------------------------]
B---------------------------------------]
G---------------------------------------]
D---------------------------------------]
A---0--4----------------0--4------------]
E-2-------------------2-----------------]

woooo end of song :D

            
            
Suggest correction
Creating personal tab
Creating personal tab
You can edit any tab online and save it as your Personal.

You can edit, replace or remove any tab part or add personal notes – all changes will be seen only by you.

Personal tabs can be accessed anytime from any device, even offline.
Learn more »
Give kudos to tab author, rate the tab!
1 2 3 4 5
comments
print report bad tab
1 comment total.
0 reply
maartenislang 51 Aug 05, 2007 08:48 AM

Notes follow the words

Part A
------------------------------------------
------------------------------------------
--------11-9-------------------11-9-------
-------------11---11----------------11-11-
---9-12-------------------9-12------------
------------------------------------------

Part B
E------10--9---------------10--9----------]
B-7-10-------10---10---7-10--------10-10--]
G-----------------------------------------]
D-----------------------------------------]
A-----------------------------------------]
E-----------------------------------------]

Part C
E--7--9--7--9----9--7-------------------]
B---------------------10--9--7-10-------]
G---------------------------------(9)(9)] REPEAT
D---------------------------------------]
A---------------------------------------]
E---------------------------------------]

Part D
E--2--2--2------------------2------------------]
B--2--2--2------------------3------------------]
G--2--2--2--1------1--1--1--2------------------]
D--4--4--4--2------2--2--2---------------------]
A--4--4--4--2------2--2--2---------------------]
E--2--2--2-------------------------------------]

or

E--9-9-7---7-7-7-9----------------------]
B------------------10-(9)-(7)-----------]
G---------------------------------------]
D---------------------------------------]
A---------------------------------------]
E---------------------------------------]


The part are played in this order

Part A x2
Part B
Part C x2
Part D
Part B

Repeat this 3 times and that's the song
I couldnt figure out how to play bassnote under each thing
without ripping out my hole tuning so i didnt. Ofcoure on piano its different;)

I used a tab from someone else and mostly re-wrote it. Couldnt find his name but props to him ofc^_^

guest
Wanna post a correction for this tab? Suggest correction