Oops, an error
Loading. Please wait.
We have an official Look On tab made by UG professional guitarists. Check out the tab »
×
2,791 views 18 this week
no commentswrite comment
1 2 3 4 5
x 8
add to favorites
×
Save as Personal and add changes to this tab that will be seen only by you. Learn more ›
×
You can save this tab as Personal to edit and correct it or add notes. All changes will be seen only by you. Learn more »
launch autoscroll
font size
0
reset
how to read this tab
guitar tuner
backing track
0:00
0:00
edit
Autoscroll
slow
fast
+/-
esc
set tempo
stop
Author
            ----------------------------------------------

                     JOHN FRUSCIANTE - LOOK ON
                  From INSIDE OF EMPTINESS, released
                       on October 26th, 2004

            ----------------------------------------------




         I used double the space per bar for the guitar 
         solo so that I have enough room for grace notes 
         and stuff. The outro is full of feedback, which 
         has been written above the tab - small letters 
         mean lower pitch.




   I can't get through
   Knots in my mind
   I resent
   The self I can't find
   I can't get through

   A paper and a pencil
   Are the best friends I’ve got
   I went to downtown LA.
   Got picked up by the cops
   I didn't get what I wanted
   But I didn't care a lot
   I saw that life was kidding
   Look on

   I'm warning you
   I skipped a life
   To be here
   I’ve got no right
   I'm bad luck

   I used to feel a lot
   Things used to be alright
   so much was going on
   I'm empty now inside
   When I thought life was terrible
   Things were going fine
   Vincent called as a set up
   Look on

   (GUITAR SOLO)

   It's not right
   I lost my fame
   It's a cheap trick
   I wanna do it again
   I've got no life

   I am a separate entity
   From the guy I was before
   Here nobody wants me
   I hoped for something more
   I flip through empty pages
   That I thought I wrote on
   I can't tell what is dreaming
   Look on




    INTRO
    00:05

    B5 C#5      E5      C#5     F#5                   A5
  e|-------------------------------|-------------------------------|
  B|-------------------------------|-------------------------------|
  G|4/6-6-6-----9---\---6----------|-------------------------------|
  D|4/6-6-6-----9---\---6-------4--|--------4-----4---7-7---7------|
  A|2/4-4-4-----7---\---4-------4--|--------4-----4---7-7---7------|
  E|----------------------------2--|--------2-----2---5-5---5------|




    B5 C#5      E5      C#5     F#add9                Aadd9
  e|----------------------------4--|--------4-----4---7-7---7------|
  B|-------------------------------|-------------------------------|
  G|4/6-6-6-----9/11-\--6-------3--|--------3-----3---6-6---6------|
  D|4/6-6-6-----9/11-\--6-------4--|--------4-----4---7-7---7------|
  A|2/4-4-4-----7/9--\--4-------4--|--------4-----4---7-7---7------|
  E|----------------------------2--|--------2-----2---5-5---5------|
                                                                I can't



    VERSE
    00:18

    B5 C#5      E5      C#5     F#5                   A5
  e|-------------------------------|-------------------------------|
  B|-------------------------------|-------------------------------|
  G|4/6-6-6-----9---\---6----------|-------------------------------|
  D|4/6-6-6-----9---\---6-------4--|--------4-----4---7-7---7------|
  A|2/4-4-4-----7---\---4-------4--|--------4-----4---7-7---7------|
  E|----------------------------2--|--------2-----2---5-5---5------|
    get through                                       knots my
                                                        in



    B5 C#5      E5      C#5     F#add9                Aadd9
  e|----------------------------4--|--------4-----4---7-7---7------|
  B|-------------------------------|-------------------------------|
  G|4/6-6-6-----9/11-\--6-------3--|--------3-----3---6-6---6------|
  D|4/6-6-6-----9/11-\--6-------4--|--------4-----4---7-7---7------|
  A|2/4-4-4-----7/9--\--4-------4--|--------4-----4---7-7---7------|
  E|----------------------------2--|--------2-----2---5-5---5------|
    mind                                                        I



    B5 C#5      E5      C#5     F#5                   A5
  e|-------------------------------|-------------------------------|
  B|-------------------------------|-------------------------------|
  G|4/6-6-6-----9---\---6----------|-------------------------------|
  D|4/6-6-6-----9---\---6-------4--|--------4-----4---7-7---7------|
  A|2/4-4-4-----7---\---4-------4--|--------4-----4---7-7---7------|
  E|----------------------------2--|--------2-----2---5-5---5------|
    resent                                      (the) self  can't
                                                        I



    B5 C#5      E5      C#5     F#add9                Aadd9
  e|----------------------------4--|--------4-----4---7-7---7------|
  B|-------------------------------|-------------------------------|
  G|4/6-6-6-----9/11-\--6-------3--|--------3-----3---6-6---6------|
  D|4/6-6-6-----9/11-\--6-------4--|--------4-----4---7-7---7------|
  A|2/4-4-4-----7/9--\--4-------4--|--------4-----4---7-7---7------|
  E|----------------------------2--|--------2-----2---5-5---5------|
      find                                                    I can't
                                                                  get



    PRE-CHORUS
    00:43

    E
  e|--------0---------------0-----0|--------0-----0---------0------|
  B|0-------0-----0---0-----0-----0|0-0-0-0-0-----0-0-0-0-0-0------|
  G|1---1-1-1-----1-1-1-1-1-1-1-1-1|1-1-1-1-1-----1-1-1-1-1-1-----x|
  D|2---2-2-2-----2-2-2-2-2-2-2-2-2|2-2-2-2-2-----2-2-2-2-2-2-----x|
  A|2---2-2-2-----2-2-2-2-2-2-2-2-2|2-2-2-2-2-----2-2-2-2-2-2-----x|
  E|0---0-0-0-----0-0-0-0-0-0-0-0-0|0-0-0-0-0-----0-0-0-0-0-0-----x|
    through                                                   I can't
                                                                  get



    G#
  e|-------------------------------|-------------------------------|
  B|4---4-4-4-----4---4-----4-----4|--4-----4-----4---4-----4------|
  G|5---5-5-5-----5-5-5-5-5-5-----5|5-5-5-5-5-----5-5-5-5-5-5---x-x|
  D|6---6-6-6-----6-6-6-6-6-6-----6|6-6-6-6-6-----6-6-6-6-6-6---x-x|
  A|6---6-6-6-----6-6-6-6-6-6-----6|6-6-6-6-6-----6-6-6-6-6-6---x-x|
  E|4---4-4-4-----4-4-4-4-4-4-----4|4-4-4-4-4-----4-4-4-4-4-4---x-x|
      through                                     Oooooooooooh    A



    CHORUS
    00:56

    A                   C#m         E                   B
  e|-------------------------------|-------------------------------|
  B|5---5-5-5---5-5-----5---5------|9-----9-9---9-9-----7---7------|
  G|6---6-6-6---6-6---x-6---6---x--|9-----9-9---9-9---x-8---8------|
  D|7---7-7-7---7-7---x-6---6---x-x|9-----9-9---9-9---x-9---9-----x|
  A|7---7-7-7---7-7---x-4---4-----x|7-----7-7---7-7---x-9---9-----x|
  E|5---5-5-5---5-5----------------|--------------------7---7-----x|
    paper   and a pencil        are   best    I've              I went
                                  the     friends got



    A                   C#m         E                   B
  e|-------------------------------|-------------------------------|
  B|5-----5-5---5-5-----5---5---x/-|9-----9-9---9-9-----7---7------|
  G|6-----6-6---6-6-----6---6---x/-|9-----9-9---9-9---x-8---8------|
  D|7-----7-7---7-7-----6---6---x/-|9-----9-9---9-9---x-9---9-----x|
  A|7-----7-7---7-7-----4---4------|7-----7-7---7-7---x-9---9-----x|
  E|5-----5-5---5-5----------------|--------------------7---7-----x|
      to  downtown  L.A.        got   up  by  the cops            didn't
                                  picked



    A                   C#m         E                   B
  e|-------------------------------|-------------------------------|
  B|5-----5-5-----5-----5---5------|9---9-9-9---9-9-----7---7------|
  G|6-----6-6-----6---x-6---6-----x|9---9-9-9---9-9---x-8---8------|
  D|7-----7-7-----7---x-6---6-----x|9---9-9-9---9-9---x-9---9-----x|
  A|7-----7-7-----7---x-4---4-----x|7---7-7-7---7-7---x-9---9-----x|
  E|5-----5-5-----5----------------|--------------------7---7-----x|
      get what  I wanted        but   didn't  a   lot           I saw
                                  I       care



    A                   C#m         E                   B
  e|-------------------------------|-------------------------------|
  B|5-----5-5-----5-----5---5------|9-----9-9-9-9-9-----7---7------|
  G|6-----6-6-----6---x-6---6---x--|9-----9-9-9-9-9---x-8---8------|
  D|7-----7-7-----7---x-6---6---x-x|9-----9-9-9-9-9---x-9---9-----x|
  A|7-----7-7-----7---x-4---4-----x|7-----7-7-7-7-7---x-9---9-----x|
  E|5-----5-5-----5----------------|--------------------7---7-----x|
        that    was             look            look            look
          life    kidding         on              on              on



    A                   C#m         E                   B
  e|-------------------------------|-------------------------------|
  B|5---5-5-5-5-5-5-----5---5------|9---9-9-9-9-9-9-----7---7------|
  G|6---6-6-6-6-6-6---x-6---6-----x|9---9-9-9-9-9-9---x-8---8------|
  D|7---7-7-7-7-7-7---x-6---6-----x|9---9-9-9-9-9-9---x-9---9------|
  A|7---7-7-7-7-7-7---x-4---4-----x|7---7-7-7-7-7-7---x-9---9------|
  E|5---5-5-5-5-5-5----------------|--------------------7---7------|
                                Look            look            look
                                  on              on              on



    B5 C#5      E5      C#5     F#5                   A5
  e|-------------------------------|-------------------------------|
  B|-------------------------------|-------------------------------|
  G|4/6-6-6-----9---\---6----------|-------------------------------|
  D|4/6-6-6-----9---\---6-------4--|--------4-----4---7-7---7-----x|
  A|2/4-4-4-----7---\---4-------4--|--------4-----4---7-7---7-----x|
  E|----------------------------2--|--------2-----2---5-5---5------|




    B5 C#5      E5      C#5     F#add9                Aadd9
  e|-------------------------------|--------4-----4---7-7---7------|
  B|-------------------------------|-------------------------------|
  G|4/6-6-6-----9/11-\--6-------3--|--------3-----3---6-6---6------|
  D|4/6-6-6-----9/11-\--6-------4--|--------4-----4---7-7---7------|
  A|2/4-4-4-----7/9--\--4-------4--|--------4-----4---7-7---7------|
  E|----------------------------2--|--------2-----2---5-5---5------|
                                                              I'm warning



    VERSE
    01:39

    ...you
    I skipped a life
    To be here I've got no right
    I'm bad luck
    I'm bad luck



    CHORUS
    02:17

    I used to feel a lot
    Things used to be alright
    So much was going on
    I'm empty now inside
    When I thought life was terrible
    Things were going fine
    Vincent called as a set up
    Look on, look on, look on



    GUITAR SOLO
    02:42

    A                                       C#m
  e|----7---9---7---9-------9---7----------------------------------|
  B/9------------------------------9\7--5---7-------7---5------7/9-|
  G|--------------------------------------------------------6------|
  D|---------------------------------------------------------------|
  A|---------------------------------------------------------------|
  E|---------------------------------------------------------------|




    E                                       B
  e|7---7-------7---7-------7-------7---7--------------------------|
  B|--------9-----------9-------9-----------9----------------------|
  G|---------------------------------------------------------------|
  D|---------------------------------------------------------------|
  A|---------------------------------------------------------------|
  E|---------------------------------------------------------------|




    A                                       C#m
  e|9B11--------9B11----9B11----9B11R9-----------------------------|
  B|----------------------------------------9-------9-------7---9--|
  G|---------------------------------------------------------------|
  D|---------------------------------------------------------------|
  A|---------------------------------------------------------------|
  E|---------------------------------------------------------------|




    E                                       B
  e|7---9---7---9---7-----------------------------------7---7------|
  B|-----------------------9\7--5---7---5---7---5--7/9----------9--|
  G|---------------------------------------------------------------|
  D|---------------------------------------------------------------|
  A|---------------------------------------------------------------|
  E|---------------------------------------------------------------|




    A                                       C#m
  e|7---7----------------------------------------------------------|
  B|--------9-\-7---5---7---7P5-----5-------5---4------------------|
  G|----------------------------6-------------------6---4---6------|
  D|---------------------------------------------------------------|
  A|---------------------------------------------------------------|
  E|---------------------------------------------------------------|




    E                                       B
  e|---------------------------------------------------------------|
  B|5---4----------------------------------------------------------|
  G|--------6---4---6P4-----4---6---6P4-----4----------------------|
  D|--------------------6---------------6------6\4--2---4---4---2--|
  A|---------------------------------------------------------------|
  E|---------------------------------------------------------------|




    A                                       C#m
  e|---------------------------------------------------------------|
  B|---------------------------------------------------------------|
  G|----4---4-------4---4------4B6----------4----------------------|
  D4/6----------6-----------6-----------6------6\4--2---4---4P2----|
  A|------------------------------------------------------------4--|
  E|---------------------------------------------------------------|




    E                                       B
  e|---------------------------------------------------------------|
  B|---------------------------------------------------------------|
  G|---------------------------------------------------------------|
  D|2--------------------------------------------------------------|
  A|----4---2---------------------------------------------------2--|
  E|------------4---4P2P0---2P0---2---2/4---2P0-0---0---2-/-4------|




    A                                       C#m
  e|---------------------------------------------------------------|
  B|------------------------------------------------------------9--|
  G|----------------------------4-------4---6-------6----------11B13
  D|------------2-------2--4/6------6------------------------------|
  A|----2---4-------4----------------------------------------------|
  E|4--------------------------------------------------------------|




    E                                       B
  e|---------------------------------------------------------------|
  B|----9-------9-----------------------------------------------12-|
  G|---11B13---11B13--------11--11B13R11--------------------13-----|
  D|----------------------------------------11------11-------------|
  A|---------------------------------------------------------------|
  E|---------------------------------------------------------------|




    A                                       C#m
  e|---------------------------------------------------B16R14---12-|
  B|12------12------14B16---14B16---14B16R14----14-----------------|
  G|----13---------------------------------------------------------|
  D|---------------------------------------------------------------|
  A|---------------------------------------------------------------|
  E|---------------------------------------------------------------|




    E                                       B
  e|14B16-------14B16---12--14--12--14--12--14--12--14--14--14--12-|
  B|---------------------------------------------------------------|
  G|---------------------------------------------------------------|
  D|---------------------------------------------------------------|
  A|---------------------------------------------------------------|
  E|---------------------------------------------------------------|




    A                                       C#m
  e|14--14--12--14--14--12--14--12--14--12--11------12------12-----|
  B|---------------------------------------------------------------|
  G|---------------------------------------------------------------|
  D|---------------------------------------------------------------|
  A|---------------------------------------------------------------|
  E|---------------------------------------------------------------|




    E                                       B
  e|14------14--14B16---14--12--14--12141211--------12--12---------|
  B|----------------------------------H-P-\-----------------14-----|
  G|---------------------------------------------------------------|
  D|---------------------------------------------------------------|
  A|---------------------------------------------------------------|
  E|---------------------------------------------------------------|




    A                                       C#m
  e|----------------19B21---19B21---R---19-------------------------|
  B|14\-------------------------------------21------21------19H-21-|
  G|---------------------------------------------------------------|
  D|---------------------------------------------------------------|
  A|---------------------------------------------------------------|
  E|---------------------------------------------------------------|




    E                                       B
  e|19H-21--19H-21--19--------------------------------------19-----|
  B|---------------------B21R19-17--19--17--19--17--19B21-------19B21
  G|---------------------------------------------------------------|
  D|---------------------------------------------------------------|
  A|---------------------------------------------------------------|
  E|---------------------------------------------------------------|




    A                                       C#m
  e|--------19------------------------------19........-------------|
  B|-----------R19------17--19--17--19B21----------B21-------------|
  G|---------------------------------------------------------------|
  D|---------------------------------------------------------------|
  A|---------------------------------------------------------------|
  E|---------------------------------------------------------------|




    E                                       B
  e|19----------19----------19-------------------------------------|
  B|---R19---------R19----------19------17--19--17--19--17--16--17-|
  G|---------------------------------------------------------------|
  D|---------------------------------------------------------------|
  A|---------------------------------------------------------------|
  E|---------------------------------------------------------------|




    A                                       C#m
  e|---------------------------------------------------------------|
  B|17------17--16--17\-16--14--14----------------------19B21------|
  G|------------------------------------------------------------18B20
  D|---------------------------------------------------------------|
  A|---------------------------------------------------------------|
  E|---------------------------------------------------------------|




    E                                       B
  e|---------------------------------------------------------------|
  B|---------------------------------------------------------------|
  G|--------18------1816----16--18--18B20---B20.----B21-----B21.---|
  D|--------------------18-----------------------------------------|
  A|---------------------------------------------------------------|
  E|---------------------------------------------------------------|




    A                                       C#m
  e|---------------------------------------------------------------|
  B|---------------------------------------------------------------|
  G|18B22------R(18)18\-16------16------------------13--16--16-----|
  D|------------------------18------16--14--16--14-----------------|
  A|---------------------------------------------------------------|
  E|---------------------------------------------------------------|




    E                                       B
  e|---------------------------------------------------------------|
  B|---------------------------------------------------------------|
  G|16\-13--13------13------14--13--14--13-------------------------|
  D|----------------------------------------14--14------14--16B17R16
  A|---------------------------------------------------------------|
  E|---------------------------------------------------------------|




    A                                       C#m
  e|---------------------------------------------------------------|
  B|---------------------------------------------------------------|
  G|---------------------------------------------------------------|
  D|14--13----------14------x-x-16B18---16B18--16B18R16-14--13--14-|
  A|---------------------------------------------------------------|
  E|---------------------------------------------------------------|




    E                                       B
  e|---------------------------------------------------------------|
  B|---------------------------------------------------------------|
  G|---------------------------------------------------------------|
  D|14\-13--11------9-H-11--9-------9---------------9BR-----9--11--|
  A|----------------------------11------9---7---9-------11---------|
  E|---------------------------------------------------------------|





    B5 C#5      E5      C#5     F#5                   A5
  e|-------------------------------|-------------------------------|
  B|-------------------------------|-------------------------------|
  G|----------------------------6B9|----------------4H6-6---6---6B9|
  D|11--\--------------------------|-------------------------------|
  A|-------------------------------|-------------------------------|
  E|-------------------------------|-------------------------------|




    B5 C#5      E5      C#5     F#add9                Aadd9
  e|-------------------------------|-------------------------------|
  B|----------------------------14-|----14------19B21---19B21------|
  G|------------1B13------------16B18--B18----------20------20-----|
  D|-------------------------------|-------------------------------|
  A|-------------------------------|-------------------------------|
  E|-------------------------------|-------------------------------|
                                                              It's
                                                                 not



    VERSE
    04:08

    B5 C#5      E5      C#5     F#5                   A5
  e|9-9-9-9-9---9-9---9-9---9---9-9|9-9-9---9---9-9-9-9-9-9-9-9-9-9|
  B|-------------------------------|-------------------------------|
  G|6-6-6-6-6---6-6---6-6---6---6-6|6-6-6---6---6-6-6-6-6-6-6-6-6-6|
  D|-------------------------------|-------------------------------|
  A|-------------------------------|-------------------------------|
  E|-------------------------------|-------------------------------|
      right                                           I   lost  my



    B5 C#5      E5      C#5     F#add9                Aadd9
  e|9-9-9---9---9-9---9-9---9---9-9|--9-9---9---9-9---9-9---9-9-9-9|
  B|-------------------------------|-------------------------------|
  G|6-6-6---6---6-6---6-6---6---6-6|--6-6---6---6-6---6-6---6-6-6-6|
  D|-------------------------------|-------------------------------|
  A|-------------------------------|-------------------------------|
  E|-------------------------------|-------------------------------|
        fame                                             (It's) a cheap



    B5 C#5      E5      C#5     F#5                   A5
  e|9---9-9-9---9-9---9-9---9---9-9|--9-9---9---9-9---9-9---9-9-9-9|
  B|-------------------------------|-------------------------------|
  G|6---6-6-6---6-6---6-6---6---6-6|--6-6---6---6-6---6-6---6-6-6-6|
  D|-------------------------------|-------------------------------|
  A|-------------------------------|-------------------------------|
  E|-------------------------------|-------------------------------|
        trick                                       (I) wanna it
                                                            do  again



    B5 C#5      E5      C#5     F#add9                Aadd9
  e|9-9-9-9-9---9-9---9-9---9---9-9|--9-9---9---9-9---9-9-9-9-9-9--|
  B|-------------------------------|-------------------------------|
  G|6-6-6-6-6---6-6---6-6---6---6-6|--6-6---6---6-6---6-6-6-6-6-6--|
  D|-------------------------------|-------------------------------|
  A|-------------------------------|-------------------------------|
  E|-------------------------------|-------------------------------|
                                                              I've
                                                                got
                                                                  no



    PRE-CHORUS
    04:33

    ...life
    I've got no life

    CHORUS
    04:46

    I am a separate entity from the guy I was before
    Here nobody wants me, I hoped for something more
    Flip through empty pages I thought I wrote on
    I can't tell what is dreaming





    A                   C#m         E                   B
  e|-------------------------------|-------------------------------|
  B|-------------------------------|----------------------------1214
  G|-------------------------------|-------------------------------|
  D|-------------------------------|-------------------------------|
  A|-------------------------------|-------------------------------|
  E|-------------------------------|-------------------------------|
                                Look            look            look
                                  on              on              on



    OUTRO
    5:10

    A                   C#m         E                   B
  e|-------------------------------|-------------------------------|
  B|14-----------------------------|----------------------------1214
  G|-------------------------------|-------------------------------|
  D|-------------------------------|-------------------------------|
  A|-------------------------------|-------------------------------|
  E|-------------------------------|-------------------------------|
                  C#




    A                   C#m         E                   B
  e|-------------------------------|-------------------------------|
  B|14B16R14-----------------------|-------------------------------|
  G|-------------------------------|-------------------------------|
  D|-------------------------------|-------------------------------|
  A|-------------------------------|-------------------------------|
  E|-------------------------------|-------------------------------|
              C#            c#
                                Look            look            look
                                  on              on              on



    A                   C#m         E                   B
  e|-------------------------------|-------------------------------|
  B|1214---------------------------|----------------------------1214
  G|-------------------------------|-------------------------------|
  D|-------------------------------|-------------------------------|
  A|-------------------------------|-------------------------------|
  E|-------------------------------|-------------------------------|





    A                   C#m         E                   B
  e|-------------------------------|-------------------------------|
  B|14-----------------------------|-------------------------------|
  G|-------------------------------|-------------------------------|
  D|-------------------------------|-------------------------------|
  A|-------------------------------|-------------------------------|
  E|-------------------------------|-------------------------------|
                    C#                              Bb          G#
                                Look            look            look
                                  on              on              on



    A                   C#m         E                   B
  e|-------------------------------|-------------------------------|
  B|-------------------------------|----------------------------1214
  G|-------------------------------|-------------------------------|
  D|-------------------------------|-------------------------------|
  A|-------------------------------|-------------------------------|
  E|-------------------------------|-------------------------------|
    Bb\G#         BbG#        BbG#       Bb\G#




    A                   C#m         E                   B
  e|-------------------------------|-------------------------------|
  B|----------------------------1214-------------------------------|
  G|-------------------------------|-------------------------------|
  D|-------------------------------|-------------------------------|
  A|-------------------------------|-------------------------------|
  E|-------------------------------|-------------------------------|
    G#                                                       (E)
                                Look            look            look
                                  on              on              on




    A                   C#m         E                   B
  e|----------------------------16-|-------------------------------|
  B|-------------------------------|------------------9B12---------|
  G|-------------------------------|-------------------------------|
  D|-------------------------------|-------------------------------|
  A|-------------------------------|-------------------------------|
  E|-------------------------------|-------------------------------|
    C#




    A                   C#m         E                   B
  e|-------------------------------|-------------------------------|
  B|14-B-16R14---------------------|(14)---------------------------|
  G|-------------------------------|-------------------------------|
  D|-------------------------------|-------------------------------|
  A|-------------------------------|-------------------------------|
  E|-------------------------------|-------------------------------|
            C#




    A
  e|-------------------------------|-------------------------------|
  B|5------------------------------|-------------------------------|
  G|6------------------------------|-------------------------------|
  D|7------------------------------|-------------------------------|
  A|7------------------------------|-------------------------------|
  E|5------------------------------|-------------------------------|
            c#         g#/a/b/c/C#  D       C#

            
            
Suggest correction
Creating personal tab
Creating personal tab
You can edit any tab online and save it as your Personal.

You can edit, replace or remove any tab part or add personal notes – all changes will be seen only by you.

Personal tabs can be accessed anytime from any device, even offline.
Learn more »
comments
print report bad tab
guest
You may want to rate the tab now too:
select rating
Wanna post a correction for this tab? Suggest correction