Oops, an error
Loading. Please wait.

Mascara tab

version 4
version 4

Whole song

Interactive

280 views 1 this week
no commentswrite comment
1 2 3 4 5
2 more votes to show rating
add to favorites
×
Save as Personal and add changes to this tab that will be seen only by you. Learn more ›
×
You can save this tab as Personal to edit and correct it or add notes. All changes will be seen only by you. Learn more »
launch autoscroll
font size
0
reset
how to read this tab
guitar tuner
edit
Autoscroll
slow
fast
+/-
esc
set tempo
stop
Author
          --------------------------------------------------

                     JOHN FRUSCIANTE - MASCARA
                From NIANDRA LADES AND USUALLY JUST A 
               T-SHIRT, released on November 22nd, 1994

          --------------------------------------------------





           Except for the last part, which is an excerpt 
           from OUTSIDE SPACE, the whole song is played 
           half step down. Chords above tab are written 
           as they actually sound, just in case you want 
           to play using standard tuning. Note the chord 
           (Bm) on bar #4, which John used to play live 
           as a D but on the record it sounds more like 
           a Bm.

           There are 2 voices from 01:09 on, whose lyrics
           are rather confusing. It seems as if John had 
           been making them up while recording, especially 
           for voice 2. Lyrics on the net are not that 
           accurate, so I transcribed them as I hear them. 
           The words or phrases in parentheses are the ones 
           I'm not sure of. Feel free to correct me.





     There's a bright red sun dripping thru a porthole in a set design
     Can you read your name?
     It's been so long since we bloomed from the inside
     So where have you been since you fell off the flat edge
     Of a world under an ugly sky
     You've been lying right there claiming you dance under the moonlight
     To what you think is a song but it's the flesh and blood of a dismembered groin
     that's been bleeding for thousands of your years

     VOICE 1
     You felt like crystal in your thighs
     You're the one that makes me realize
     Big water flowing (blue to) tomorrow
     Apples and cakes must've bitten your snake
     Your little dark house
     You're hidden by your wooden legs
     Staring down at the world's head
     Down at the whirlpool
     I finally realized you must've bitten your snake, you little dog

     I've been insane well the time is slow
     The Pope don't matter when the (pop) is your sea, don't you agree?
     When you're round and wound around your thumb
     You wanna be numb inside the gun
     All your billboards in lights
     I want big fight against the baby inside that you've mistaken for pain

     VOICE 2
     You get four red candles
     On a table with your penis by your eyes
     (Glued to your addiction)
     Have supposed you to change (those gallons) of wine
     But the smile you send in my direction makes me feel like I'm alive
     You're my kind, you're my kind
     You always make me feel like the moon is in my life (all) the time
     It always makes me feel good to know you're alive
     You're wrapping (your ties)

     You are the (glue) to a (society and judge) that I'll make a ceiling, so you can't feel sunshine
     And if you see me roaming the hillside, won't you come along?
     It's a hard road to the top of yourself
     You'll always be alone
     I like you (in my line)
     (I don't play wah-wah)
     'cause it's good just to know I can love just someone like you
     That'll make it hard for you to choose
     I can understand but when you see creation coming you close your eyes
     And to you I'm sure it's no surprise that I could be one of the dead
     Thank God my underwear's full of (them) without you
     Without you




              Tune your guitar 1/2 step down


            PART I
            00:00

            F#                      A
          e|-----------------------|-----------------------|
          B|3---x-3-3---3---3-3-3-x|3---x-3-3---3---3-3-3-x|
          G|4---x-4-4---4---4-4-4-x|3---x-3-3---3---3-3-3-x|
          D|5---x-5-5---5---5-5-5-x|3---x-3-3---3---3-3-3-x|
          A|5---x-5-5---5---5-5-5-x|1---x-1-1---1---1-1-1-x|
          E|3---x-3-3---3---3-3-3-x|-----------------------|
                There's sun dripping
                  a bright      thru
                      red         a porthole




            B                       Bm*
          e|-----------------------|-----------------------|
          B|5-----5-5-5-5-----x-5-x|4-----4-4-4-4-4-4-4-4-x|
          G|5-----5-5-5-5-----x-5-x|5-----5-5-5-5-5-5-5-5-x|
          D|5-----5-5-5-5-----x-5-x|5-----5-5-5-5-5-5-5-5-x|
          A|3-----3-3-3-3-----x-3-x|3-----3-3-3-3-3-3-3-3-x|
          E|-----------------------|-----------------------|
            in a            set design




            A                       E
          e|-----------------------|-----------------------|
          B|6-----6-6-x-6-----6-6-x|1-----1-1---1-----1-1-x|
          G|7-----7-7-x-7-----7-7-x|2-----2-2---2-----2-2-x|
          D|8-----8-8-x-8-----8-8-x|3-----3-3---3-----3-3-x|
          A|8-----8-8-x-8-----8-8-x|3-----3-3---3-----3-3-x|
          E|6-----6-6-x-6-----6-6-x|1-----1-1---1-----1-1-x|
                    Can you read    name?             It's
                                your                    been
                                                          so




            Bm                      F#m
          e|-----------------------|-----------------------|
          B|4-----4-4-x-4-----4-4-x|3-----3-3-x-3-x-3-x-3-x|
          G|5-----5-5-x-5-----5-5-x|3-----3-3-x-3-x-3-x-3-x|
          D|5-----5-5-x-5-----5-5-x|5-----5-5-x-5-x-5-x-5-x|
          A|3-----3-3-x-3-----3-3-x|5-----5-5-x-5-x-5-x-5-x|
          E|-----------------------|3-----3-3-x-3-x-3-x-3-x|
            long  since bloomed   inside
                      we      from
                                the




            G                       Bm
          e|-----------------------|-----------------------|
          B|4-----4-4-4-4-----4-4-x|4-----4---x-4-----4-4-x|
          G|5-----5-5-5-5-----5-5-x|5-----5---x-5-----5-5-x|
          D|6-----6-6-6-6-----6-6-x|5-----5---x-5-----5-5-x|
          A|6-----6-6-6-6-----6-6-x|3-----3---x-3-----3-3-x|
          E|4-----4-4-4-4-----4-4-x|-----------------------|
                  so  where   you been            since you
                          have




            C                       Eb
          e|-----------------------|-----------------------|
          B|6-----6---x-6-----6-6-x|9-----9-9---9---9-9-9-9|
          G|6-----6---x-6-----6-6-x|9-----9-9---9---9-9-9-9|
          D|6-----6---x-6-----6-6-x|9-----9-9---9---7-9-9-9|
          A|4-----4---x-4-----4-4-x|7-----7-7---7---7-7-7-7|
          E|-----------------------|-----------------------|
            fell  off   the   flat  edge




                              F     G
          e|-----------------------|-----------------------|
          B|9-9-9-9-9-9-9-x-x-11x-x|13--4-4-4-4-4---4-4-4-4|
          G|9-9-9-9-9-9-9-x-x-11x-x|13--5-5-5-5-5---5-5-5-5|
          D|9-9-9-9-9-9-9-x-x-11x-x|13--6-6-6-6-6---6-6-6-6|
          A|7-7-7-7-7-7-7-x-x-9-x-x|11--6-6-6-6-6---6-6-6-6|
          E|-----------------------|----4-4-4-4-4---4-4-4-4|
                                        of  a   world     an
                                                    under




                        Eb    F     G
          e|-----------------------|-----------------------|
          B|4---4-4-4-x-0-x-x-2-x-x|4---4-4-4-4-4---4-4-4-4|
          G|5---5-5-5-x-1-x-x-3-x-x|5---5-5-5-5-5---5-5-5-5|
          D|6---6-6-6-x-2-x-x-4-x-x|6---6-6-6-6-6---6-6-6-6|
          A|6---6-6-6-x-2-x-x-4-x-x|6---6-6-6-6-6---6-6-6-6|
          E|4---4-4-4-x-0-x-x-2-x-x|4---4-4-4-4-4---4-4-4-4|
            ugly    sky                 You've  lying
                                            been




                        Eb    F     G
          e|-----------------------|-----------------------|
          B|4-4-4-4-4-x-0-x-x-2-x-x|4---4-4-4-4-4---4-4-4-4|
          G|5-5-5-5-5-x-1-x-x-3-x-x|5---5-5-5-5-5---5-5-5-5|
          D|6-6-6-6-6-x-2-x-x-4-x-x|6---6-6-6-6-6---6-6-6-6|
          A|6-6-6-6-6-x-2-x-x-4-x-x|6---6-6-6-6-6---6-6-6-6|
          E|4-4-4-4-4-x-0-x-x-2-x-x|4---4-4-4-4-4---4-4-4-4|
            right                       there       you dance
                                            claiming




                        Eb    F     Eb
          e|-----------------------|-----------------------|
          B|4---4-4-4-x-0-x-x-2-x-x|0---0-0-0-0-0---0-0-0-0|
          G|5---5-5-5-x-1-x-x-3-x-x|1---1-1-1-1-1---1-1-1-1|
          D|6---6-6-6-x-2-x-x-4-x-x|2---2-2-2-2-2---2-2-2-2|
          A|6---6-6-6-x-2-x-x-4-x-x|2---2-2-2-2-2---2-2-2-2|
          E|4---4-4-4-x-0-x-x-2-x-x|0---0-0-0-0-0---0-0-0-0|
            under       the   moonlight




                              F     G
          e|-----------------------|-----------------------|
          B|0-0-0-0-0-0-0-x-x-2-x-x|4---4-4-4-4-4---4-4-4-4|
          G|1-1-1-1-1-1-1-x-x-3-x-x|5---5-5-5-5-5---5-5-5-5|
          D|2-2-2-2-2-2-2-x-x-4-x-x|6---6-6-6-6-6---6-6-6-6|
          A|2-2-2-2-2-2-2-x-x-4-x-x|6---6-6-6-6-6---6-6-6-6|
          E|0-0-0-0-0-0-0-x-x-2-x-x|4---4-4-4-4-4---4-4-4-4|
                                    To  what  think     a song
                                            you   is




                        Eb    F     G
          e|-----------------------|-----------------------|
          B|4---4-4-4-x-0-x-x-2-x-x|4---4-4-4-4-4---4-4-4-4|
          G|5---5-5-5-x-1-x-x-3-x-x|5---5-5-5-5-5---5-5-5-5|
          D|6---6-6-6-x-2-x-x-4-x-x|6---6-6-6-6-6---6-6-6-6|
          A|6---6-6-6-x-2-x-x-4-x-x|6---6-6-6-6-6---6-6-6-6|
          E|4---4-4-4-x-0-x-x-2-x-x|4---4-4-4-4-4---4-4-4-4|
                but is  the flesh     blood of  a   dismembered
                                and




                        Eb    F     G
          e|-----------------------|-----------------------|
          B|4---4-4-4-x-0-x-x-2-x-x|4---4-4-4-4-4---4-4-4-4|
          G|5---5-5-5-x-1-x-x-3-x-x|5---5-5-5-5-5---5-5-5-5|
          D|6---6-6-6-x-2-x-x-4-x-x|6---6-6-6-6-6---6-6-6-6|
          A|6---6-6-6-x-2-x-x-4-x-x|6---6-6-6-6-6---6-6-6-6|
          E|4---4-4-4-x-0-x-x-2-x-x|4---4-4-4-4-4---4-4-4-4|
                groin that's  bleed-ing     for thousands
                        been




                        Eb    F     Eb
          e|-----------------------|-----------------------|
          B|4-4-4-4-4-x-0---x-2---x|0---0-0-0-0-0---0-0-0-0|
          G|5-5-5-5-5-x-1---x-3---x|1---1-1-1-1-1---1-1-1-1|
          D|6-6-6-6-6-x-2---x-4---x|2---2-2-2-2-2---2-2-2-2|
          A|6-6-6-6-6-x-2---x-4---x|2---2-2-2-2-2---2-2-2-2|
          E|4-4-4-4-4-x-0---x-2---x|0---0-0-0-0-0---0-0-0-0|
                    of        your      years





          e|-----------------------|
          B|0---0-0-0---0---0-0-0-0|
          G|1---1-1-1---1---1-1-1-1|
          D|2---2-2-2---2---2-2-2-2|
          A|2---2-2-2---2---2-2-2-2|
          E|0---0-0-0---0---0-0-0-0|




    PART II
    00:58

    G#m             G#m/Eb          G#m             G#m/Eb
  e|--------5---------------5------|--------5---------------5------|
  B|--------5---------------5------|--------5---------------5------|
  G|--------5---------------5------|--------5---------------5------|
  D|-------------------------------|-------------------------------|
  A|0------------------------------|0------------------------------|
  E|----------------0--------------|----------------0--------------|





    G#m             G#m/Eb          G#m             G#m/Eb
  e|--------5---------------5------|--------5---------------5------|
  B|--------5---------------5------|--------5---------------5------|
  G|--------5---------------5------|--------5---------------5------|
  D|-------------------------------|-------------------------------|
  A|0------------------------------|0------------------------------|
  E|----------------0--------------|----------------0--------------|





    G#m             G#m/Eb          E               B
  e|--------5---------------5------|--------1---------------0------|
  B|--------5---------------5------|--------1---------------1------|
  G|--------5---------------5------|--------2---------------0------|
  D|-------------------------------|-------------------------------|
  A|0------------------------------|----------------3--------------|
  E|----------------0--------------|1------------------------------|
          You       felt like       crystal     in          your thighs




    G#m             G#m/Eb          G#m                     Gdim
  e|--------5---------------5------|--------5---------------7------|
  B|--------5---------------5------|--------5---------------6------|
  G|--------5---------------5------|--------5---------------7------|
  D|-------------------------------|------------------------6------|
  A|0------------------------------|0------------------------------|
  E|----------------0--------------|----------------0--------------|






  e|--------5---------------5------|--------1---------------0------|
  B|--------5---------------5------|--------1---------------1------|
  G|--------5---------------5------|--------2---------------0------|
  D|-------------------------------|-------------------------------|
  A|0------------------------------|----------------3--------------|
  E|----------------0--------------|1------------------------------|
         You're the one   that      makes       realize
                                        me




    G#m             G#m/Eb          G#m             G#m/Eb
  e|--------5---------------5------|--------5---------------5------|
  B|--------5---------------5------|--------5---------------5------|
  G|--------5---------------5------|--------5---------------5------|
  D|-------------------------------|-------------------------------|
  A|0------------------------------|0------------------------------|
  E|----------------0--------------|----------------0--------------|





    E                               B
  e|-------------------------------|0---0-0-0-0-0-----0-0-0-0---0-x|
  B|1-----1-1---1---1-1-1-1-1---1-x|1---1-1-1-1-1-----1-1-1-1---1-x|
  G|2-----2-2---2---2-2-2-2-2---2-x|0---0-0-0-0-0-----0-0-0-0---0-x|
  D|3-----3-3---3---3-3-3-3-3---3-x|2---2-2-2-2-2-----2-2-2-2---2-x|
  A|3-----3-3---3---3-3-3-3-3---3-x|3---3-3-3-3-3-----3-3-3-3---3-x|
  E|1-----1-1---1---1-1-1-1-1---1-x|-------------------------------|
        Big water       blue    tomorrow
                flowing     to




    E                               Bm          A               G
  e|-------------------------------|-------------------------------|
  B|1-----------1---1-1-1-1-1---1-x|4---x-4-4-x-3---3---x-3-3-x-4--|
  G|2-----------2---2-2-2-2-2---2-x|5---x-5-5-x-3---3---x-3-3-x-5--|
  D|3-----------3---3-3-3-3-3---3-x|5---x-5-5-x-3---3---x-3-3-x-6--|
  A|3-----------3---3-3-3-3-3---3-x|3---x-3-3-x-1---1---x-1-1-x-6--|
  E|1-----------1---1-1-1-1-1---1-x|----------------------------4--|
    Apples  and cakes   must've bitten your     snake




                                    F#
  e|-------------------------------|-------------------------------|
  B|4-4-4-4-4---4-4-4-4-4---4---4-x|3---3-3-3---3-3-3-3-3-3-3-3-3-x|
  G|5-5-5-5-5---5-5-5-5-5---5---5-x|4---4-4-4---4-4-4-4-4-4-4-4-4-x|
  D|6-6-6-6-6---6-6-6-6-6---6---6-x|5---5-5-5---5-5-5-5-5-5-5-5-5-x|
  A|6-6-6-6-6---6-6-6-6-6---6---6-x|5---5-5-5---5-5-5-5-5-5-5-5-5-x|
  E|4-4-4-4-4---4-4-4-4-4---4---4-x|3---3-3-3---3-3-3-3-3-3-3-3-3-x|
                      your      dark    house
                        little




    01:49

    G#m             G#m/Eb          G#m             G#m/Eb
  e|--------5---------------5------|--------5---------------5------|
  B|--------5---------------5------|--------5---------------5------|
  G|--------5---------------5------|--------5---------------5------|
  D|-------------------------------|-------------------------------|
  A|0------------------------------|0------------------------------|
  E|----------------0--------------|----------------0--------------|





    G#m             G#m/Eb          E               B
  e|--------5---------------5------|--------1---------------0------|
  B|--------5---------------5------|--------1---------------1------|
  G|--------5---------------5------|--------2---------------0------|
  D|-------------------------------|-------------------------------|
  A|0------------------------------|----------------3--------------|
  E|----------------0--------------|1------------------------------|
            You're              by      your    wooden          legs
                hidden




    G#m             G#m/Eb          G#m                     Gdim
  e|--------5---------------5------|--------5---------------7------|
  B|--------5---------------5------|--------5---------------6------|
  G|--------5---------------5------|--------5---------------7------|
  D|-------------------------------|------------------------6------|
  A|0------------------------------|0------------------------------|
  E|----------------0--------------|----------------0--------------|





    G#m             G#m/Eb          E               B
  e|--------5---------------5------|--------1---------------0------|
  B|--------5---------------5------|--------1---------------1------|
  G|--------5---------------5------|--------2---------------0------|
  D|-------------------------------|-------------------------------|
  A|0------------------------------|----------------3--------------|
  E|----------------0--------------|1------------------------------|
          Staring                   down    at  the     world's head




    G#m             G#m/Eb          G#m             G#m/Eb
  e|--------5---------------5------|--------5---------------5------|
  B|--------5---------------5------|--------5---------------5------|
  G|--------5---------------5------|--------5---------------5------|
  D|-------------------------------|-------------------------------|
  A|0------------------------------|0------------------------------|
  E|----------------0--------------|----------------0--------------|





    E                               B
  e|-------------------------------|0-----0-0-0-0---0-0-0-0-0-0-x-x|
  B|1-----1-1-1-1-----1-1-1-1---1-x|1-----1-1-1-1---1-1-1-1-1-1-x-x|
  G|2-----2-2-2-2-----2-2-2-2---2-x|0-----0-0-0-0---0-0-0-0-0-0-x-x|
  D|3-----3-3-3-3-----3-3-3-3---3-x|2-----2-2-2-2---2-2-2-2-2-2-x-x|
  A|3-----3-3-3-3-----3-3-3-3---3-x|3-----3-3-3-3---3-3-3-3-3-3-x-x|
  E|1-----1-1-1-1-----1-1-1-1---1-x|-------------------------------|
                        Down    the
                            at    whirlpool




    E                               Bm          A               G
  e|-------------------------------|-------------------------------|
  B|1---1-1-1---1---1-1-1-1-1---1-x|4---4-4-x---3-3-----3-3-x---4--|
  G|2---2-2-2---2---2-3-2-2-2---2-x|5---5-5-x---3-3-----3-3-x---5--|
  D|3---3-3-3---3---3-3-3-3-3---3-x|5---5-5-x---3-3-----3-3-x---6--|
  A|3---3-3-3---3---3-3-3-3-3---3-x|3---3-3-x---1-1-----1-1-x---6--|
  E|1---1-1-1---1---1-1-1-1-1---1-x|----------------------------4--|
          I finally realize       you   must've                 bitten




                                    F#
  e|-------------------------------|-------------------------------|
  B|--4-4-4-4---4-4-4-4-4---4---4--|3---3-3-3---3-3-3-3-3---3-3-3-x|
  G|--5-5-5-5---5-5-5-5-5---5---5--|4---4-4-4---4-4-4-4-4---4-4-4-x|
  D|--6-6-6-6---6-6-6-6-6---6---6--|5---5-5-5---5-5-5-5-5---5-5-5-x|
  A|--6-6-6-6---6-6-6-6-6---6---6--|5---5-5-5---5-5-5-5-5---5-5-5-x|
  E|--4-4-4-4---4-4-4-4-4---4---4--|3---3-3-3---3-3-3-3-3---3-3-3-x|
                            your          snake,        you   dog
                                                          little



    PART III
    02:36

    Bm          D                   A           G
  e|-------------------------------|-------------------------------|
  B|4---4-4-4-x-8---8-8-8-8-8-8-8-x|6-----6-6-x-4-----4-4-4-4-4-4-x|
  G|5---5-5-5-x-8---8-8-8-8-8-8-8-x|7-----7-7-x-5-----5-5-5-5-5-5-x|
  D|5---5-5-5-x-8---8-8-8-8-8-8-8-x|8-----8-8-x-6-----6-6-6-6-6-6-x|
  A|3---3-3-3-x-6---6-6-6-6-6-6-6-x|8-----8-8-x-6-----6-6-6-6-6-6-x|
  E|-------------------------------|6-----6-6-x-4-----4-4-4-4-4-4-x|
            I've    been                    well    time
                        insane                  the     is




    Bm          D                   A           G
  e|-------------------------------|-------------------------------|
  B|4-----4-4-x-8---8-8-8-8-8-8-8-x|6-----6-6-x-4---4-4-4-4-4-4-4-x|
  G|5-----5-5-x-8---8-8-8-8-8-8-8-x|7-----7-7-x-5---5-5-5-5-5-5-5-x|
  D|5-----5-5-x-8---8-8-8-8-8-8-8-x|8-----8-8-x-6---6-6-6-6-6-6-6-x|
  A|3-----3-3-x-6---6-6-6-6-6-6-6-x|8-----8-8-x-6---6-6-6-6-6-6-6-x|
  E|-------------------------------|6-----6-6-x-4---4-4-4-4-4-4-4-x|
    slow




    Bm          D                   A           G
  e|-------------------------------|-------------------------------|
  B|4---4-4-4-x-8---8-8-8-8-8-8-8-x|6-6-6-6-6-x-4---4-4-4-4-4-4-4-x|
  G|5---5-5-5-x-8---8-8-8-8-8-8-8-x|7-7-7-7-7-x-5---5-5-5-5-5-5-5-x|
  D|5---5-5-5-x-8---8-8-8-8-8-8-8-x|8-8-8-8-8-x-6---6-6-6-6-6-6-6-x|
  A|3---3-3-3-x-6---6-6-6-6-6-6-6-x|8-8-8-8-8-x-6---6-6-6-6-6-6-6-x|
  E|-------------------------------|6-6-6-6-6-x-4---4-4-4-4-4-4-4-x|
            the Pope    don't   matter          when    the     pop




    F#
  e|-------------------------------|-------------------------------|
  B|3---3-x-3---3-3-3-3-3-3-3-3-3-3|3-3-3-3-3-3-3-3-3-3-3-3-3-3-3-x|
  G|4---4-x-4---4-4-4-4-4-4-4-4-4-4|4-4-4-4-4-4-4-4-4-4-4-4-4-4-4-x|
  D|5---5-x-5---5-5-5-5-5-5-5-5-5-5|5-5-5-5-5-5-5-5-5-5-5-5-5-5-5-x|
  A|5---5-x-5---5-5-5-5-5-5-5-5-5-5|5-5-5-5-5-5-5-5-5-5-5-5-5-5-5-x|
  E|3---3-x-3---3-3-3-3-3-3-3-3-3-3|3-3-3-3-3-3-3-3-3-3-3-3-3-3-3-x|
                        is    your  sea                   don't agree?
                                                              you




    Bm          D                   A           G
  e|-------------------------------|-------------------------------|
  B|4---4-4-4-x-8---8-8-8-8-8-8-8-x|6---6-6-6-x-4-----4-4-4-4-4-4-x|
  G|5---5-5-5-x-8---8-8-8-8-8-8-8-x|7---7-7-7-x-5-----5-5-5-5-5-5-x|
  D|5---5-5-5-x-8---8-8-8-8-8-8-8-x|8---8-8-8-x-6-----6-6-6-6-6-6-x|
  A|3---3-3-3-x-6---6-6-6-6-6-6-6-x|8---8-8-8-x-6-----6-6-6-6-6-6-x|
  E|-------------------------------|6---6-6-6-x-4-----4-4-4-4-4-4-x|
                    when      round   wound your
                      I'm         and   around  thumb




    Bm          D                   A           G
  e|-------------------------------|-------------------------------|
  B|4---4-4-4-x-8---8-8-8-8-8-8-8-x|6---6-6-6-x-4---4-4-4-4-4-4-4-x|
  G|5---5-5-5-x-8---8-8-8-8-8-8-8-x|7---7-7-7-x-5---5-5-5-5-5-5-5-x|
  D|5---5-5-5-x-8---8-8-8-8-8-8-8-x|8---8-8-8-x-6---6-6-6-6-6-6-6-x|
  A|3---3-3-3-x-6---6-6-6-6-6-6-6-x|8---8-8-8-x-6---6-6-6-6-6-6-6-x|
  E|-------------------------------|6---6-6-6-x-4---4-4-4-4-4-4-4-x|
          you   wanna     be        numb




    Bm          D                   A           G
  e|-------------------------------|-------------------------------|
  B|4-----4-4-x-8---8-8-8-8-8-8-8--|6---6-6-6-x-4---4-4-4-4-4-4-4-x|
  G|5-----5-5-x-8---8-8-8-8-8-8-8--|7---7-7-7-x-5---5-5-5-5-5-5-5-x|
  D|5-----5-5-x-8---8-8-8-8-8-8-8--|8---8-8-8-x-6---6-6-6-6-6-6-6-x|
  A|3-----3-3-x-6---6-6-6-6-6-6-6--|8---8-8-8-x-6---6-6-6-6-6-6-6-x|
  E|-------------------------------|6---6-6-6-x-4---4-4-4-4-4-4-4-x|
            inside        the       gun




    F#
  e|-------------------------------|-------------------------------|
  B|3---3-3---3-3-3-3-3-3-3-3-3-3-3|3-3-3-3-3-3-3-3-3-3-3-3-3-3-3-x|
  G|4---4-4---4-4-4-4-4-4-4-4-4-4-4|4-4-4-4-4-4-4-4-4-4-4-4-4-4-4-x|
  D|5---5-5---5-5-5-5-5-5-5-5-5-5-5|5-5-5-5-5-5-5-5-5-5-5-5-5-5-5-x|
  A|5---5-5---5-5-5-5-5-5-5-5-5-5-5|5-5-5-5-5-5-5-5-5-5-5-5-5-5-5-x|
  E|3---3-3---3-3-3-3-3-3-3-3-3-3-3|3-3-3-3-3-3-3-3-3-3-3-3-3-3-3-x|
                            all your billboards in  lights    I want
                                                                  big




    Bm
  e|-------------------------------|-------------------------------|
  B|-------------------------------|-------------------------------|
  G|-------------------------------|-------------------------------|
  D|--------------------3-------5--|--------------------3----------|
  A|3---3---6---3-----------6------|----3---3---3---6-------6---3--|
  E|-------------------------------|-------------------------------|
    fight       against     the baby        inside      that    mistaken
                                                            you've




                    A               G                               Bm
  e|-------------------------------|-------------------------------|--|
  B|-------------------------------|-------------------------------|--|
  G|-------------------------------|-------------------------------|--|
  D|-------------------------------|-------------------------------|--|
  A|----5B------------------6------|-------------------------------|3-|
  E|------------6-------6-------4--|--------------------------4-4--|--|
                        for     pain                         (without
                                                                    you)




    "OUTSIDE SPACE"
    03:25

    (standard tuning)

    Em                              Am
  e|-------------------------------|-------------------------------|
  B|1312--12-----------------------|15131213----12--------12-------|
  G|----12------12--------12-------|--------------12--12------12---|
  D|--------------141214----14-----|----------------14-------------|
  A|------------------------7------|-------------------------------|
  E|----------------------------0--|-------------------------------|

  e|0---0-0-0-----0---0-0---0-0-0-x|0---0-0-0---0-0-0-0-0---0-0-0-x|
  B|0---0-0-0-----0---0-0---0-0-0-x|1---1-1-1---1-1-1-1-1---1-1-1-x|
  G|0---0-0-0-----0---0-0---0-0-0-x|2---2-2-2---2-2-2-2-2---2-2-2-x|
  D|2---2-2-2-----2---2-2---2-2-2-x|2---2-2-2---2-2-2-2-2---2-2-2-x|
  A|2---2-2-2-----2---2-2---2-2-2-x|0---0-0-0---0-0-0-0-0---0-0-0-x|
  E|0---0-0-0-----0---0-0---0-0-0-x|-------------------------------|





    G                               Am          C
  e|-------------------------------|-------------------------------|
  B|1312--12-----------------------|15131213----12--------12-------|
  G|----12------12--------12BR-----|--------------12--12------12---|
  D|--------------141214--------14-|----------------14-------------|
  A|-------------------------------|-------------------------------|
  E|-------------------------------|-------------------------------|

  e|-------------------------------|0---0-0-0---0-0-0-0-0---0-0-0-0|
  B|3---3-3-3-----3---3-3---3---3-x|1---1-1-1---1-1-1-1-1---1-1-1-1|
  G|4---4-4-4-----4---4-4---4---4-x|2---2-2-2---0-0-0-0-0---0-0-0-0|
  D|5---5-5-5-----5---5-5---5---5-x|2---2-2-2---2-2-2-2-2---2-2-2-2|
  A|5---5-5-5-----5---5-5---5---5-x|0---0-0-0---3-3-3-3-3---3-3-3-3|
  E|3---3-3-3-----3---3-3---3---3-x|-------------------------------|......
Suggest correction
Creating personal tab
Creating personal tab
You can edit any tab online and save it as your Personal.

You can edit, replace or remove any tab part or add personal notes – all changes will be seen only by you.

Personal tabs can be accessed anytime from any device, even offline.
Learn more »
Give kudos to tab author, rate the tab!
1 2 3 4 5
comments
print report bad tab
guest
You may want to rate the tab now too:
select rating
Wanna post a correction for this tab? Suggest correction