Oops, an error
Loading. Please wait.

Maybe Live chords

version 1
version 1

Whole song

Interactive

54,105 views 57 this week
3 commentsread comments
1 2 3 4 5
x 33
add to favorites
×
Save as Personal and add changes to this tab that will be seen only by you. Learn more ›
×
You can save this tab as Personal to edit and correct it or add notes. All changes will be seen only by you. Learn more »
launch autoscroll
font size
0
reset
transpose
0
reset
display chords
guitar tuner
edit
Autoscroll
slow
fast
+/-
esc
set tempo
stop
Author
Strumming
There is no strumming pattern for this song yet. and get +5 IQ
A# major, then G minor, D# Major, F Major. then the chorus is just A# major to A#major 
and back. hope you know those chords.

[Intro]
e|-------------|
b|-------------|
g|-------------|
d|-------------|
a|----------0--|
E|--1-1-1-3----|

     A#    Gm   D#     F Major   sus4
e|---6------3------3------5-------6---------------------------------------|
B|---6------3------4------6-------6---------------------------------------|
G|---7------3------3------5-------8---------------------------------------|
D|---8------5------5------7-------8---------------------------------------|
A|---8------5------6------8-------8---------------------------------------|
E|---6------3------3------5-------6---------------------------------------|

Those are the chords! n'joy and rate a 5! ;)


A#     Gm
Maybe, if i pray everyday,
D#        F Major
You'll come back to me.
A#         Gm
And maybe, if i call everyday,
D#        F Major
You'll come back to stay.
 A#m A#m sus4
Oh maybe.

Intro 1X

A#     Gm
Maybe, if i hold, your hand,
D#        F Major
You will understand.
A#         Gm
And maybe, if i kiss, your lips,
D#              F Major
I'll be at your command.

    A# sus4 A# sus4
Oh maybe,
    A# sus4
Oh maybe.

            
            
Suggest correction
Creating personal tab
Creating personal tab
You can edit any tab online and save it as your Personal.

You can edit, replace or remove any tab part or add personal notes – all changes will be seen only by you.

Personal tabs can be accessed anytime from any device, even offline.
Learn more »
comments
print report bad tab
3 comments total.
+3 reply
pjm012345 20 May 18, 2007 01:33 AM

the intro part is
-----------0---
--1-1-1--3----

+1 reply
sundblom_13 10 Dec 17, 2007 09:39 PM

great tasb, 5 stars

0 reply
jrcsgtpeppers 201 Sep 07, 2009 07:34 PM

what's the difference between A#major and A# major? Shouldn't there be something else?

guest
You may want to rate the tab now too:
select rating
Wanna post a correction for this tab? Suggest correction