Oops, an error
Loading. Please wait.
We have an official Murderers tab made by UG professional guitarists. Check out the tab »
×
7,261 views 3 this week
1 commentread comment
1 2 3 4 5
x 4
add to favorites
×
Save as Personal and add changes to this tab that will be seen only by you. Learn more ›
×
You can save this tab as Personal to edit and correct it or add notes. All changes will be seen only by you. Learn more »
launch autoscroll
font size
0
reset
guitar tuner
edit
Autoscroll
slow
fast
+/-
esc
set tempo
stop
Difficulty
intermediate
Heres my transposition of the song Murderers by John Frusciante from guitar to bass:

Verse 0:
G---------------6-9-----------------------|
D-----9--6-7-7------9--7-6--7--7----------|
A---9-----------------------------9-99999-|
E(2)--------------------------------------|
The notes on the bottom two strings are
from the rythm guitar; you dont have to play thm
Verse 1:
G----------------6------------------|
D---9--6-7-7----9-9--7-6--7---------|
A-------------------------------9-9-|
E-----------------------------------|

Verse 0:
G-------------6-9-------------------|
D---9--6-7-7------9--7-6--7---------|
A-------------------------------9-9-|
E-----------------------------------|

Verse 1:
G----------------6-----------------|
D---9--6-7-7----9-9--7-6--7--7-----|
A----------------------------------|
E----------------------------------|

Chorusy type thing:
G-1-----2-----1--------------------|
d(2)---(4)---(2)----3--------------|
a-------------------4--------------|
e-0-----2-----0--------------------|

or you could play up higher:

G-13---------14---------13---------10------|
D------------------------------------------|
A------------------------------------------|
E-12---------14---------12----------9------|

Verse 2:
G-------------1--1-2--2--2-2222-2----------|
D---4-----4--------------------------------|
A------------------------------------------|
E-2----2-----------------------------------|

Then slighly different:
G-------------1--4-2--2--2-2222-2----------|
D---4-----4--------------------------------|
A------------------------------------------|
E-2----2-----------------------------------|

Then more different:
G---9-----9-----1--2--222222-|
D----------------------------|
A----------------------------|
E(2)---(2)-------------------|

Then more the same but still different:
G-------------1--------|
D---4-----4--------3~~-|
A----------------------|
E-2----2---------------|

Then Old stuff:

Verse 0
Verse 1
Verse 0
Verse 1


Then a new part:
G---1------2--------1-----4--2-|
D-2----4---------2-------------|
A------------------------------|
E------------------------------|

G---1------2-----|
D-2----4------3~-|
A-------------4~-|
E-------------4~-|

G---1------2--------1-----4--2-|
D-2----4---------2-------------|
A------------------------------|
E------------------------------|

G---1------2-----|
D-2----4------3~-|
A-------------4~-|
E-------------4~-|

Verse 0 then 1 then 0 then 1 (with the nasty note
[G string 6th fret]going throughout those verses)

Then all four versions of verse 2 in the same order
as above

on the music there's a big break then Verse 0 then 1 then 0 then 1
end with the chorusy thing once

That's it.  I hope you njoy it , i think its mostly accurate

            
            
Suggest correction
Creating personal tab
Creating personal tab
You can edit any tab online and save it as your Personal.

You can edit, replace or remove any tab part or add personal notes – all changes will be seen only by you.

Personal tabs can be accessed anytime from any device, even offline.
Learn more »
comments
print report bad tab
1 comment total.
0 reply
no7hingpersonal 10 Nov 22, 2014 10:26 AM

Does anyone know if there is a video of something playing (or showing how to play) this song on bass?- I keep trying but I can not get acouple parts to sound right. I am new to bass so IDK what I am doing, Anyways thanks for the tab, hard to come by.

guest
Wanna post a correction for this tab? Suggest correction