Oops, an error
Loading. Please wait.
We have an official Murderers tab made by UG professional guitarists. Check out the tab »
×
125,040 views 30 this week
8 commentsread comments
1 2 3 4 5
x 46
add to favorites
×
Save as Personal and add changes to this tab that will be seen only by you. Learn more ›
×
You can save this tab as Personal to edit and correct it or add notes. All changes will be seen only by you. Learn more »
launch autoscroll
font size
0
reset
how to read this tab
guitar tuner
edit
Autoscroll
slow
fast
+/-
esc
set tempo
stop
Author
-=-=-=-=-=-=-=-=-=-=-=-=-=--=-=-=-=-
John Frusciante - Murdereres 2:41
-=-=-=-=-=-=-=-=-=-=-=-=-=--=-=-=-=-
L & M: John Frusciante
Track 10 From:
To Record Only Water For Ten Days
2001 Niandra Lades BMI Music.
-=-=-=-=-=-=-=-=-=-=-=-=-=--=-=-=-=-

[Intro] Drums 

E|---------------------12----------------|
B|--12--------------14----12-------------|
G|------13-14--14------------14-13-14-14-|
D|---------------------------------------|
A|---------------------------------------|
e|---------------------------------------|

E|---------------------------------------------------|
B|---------------------------------------------------|
G|---------------------------------------------------|
D|---------------------------------------------------|
A|-9-----------9---9---------------------9-9-9-9-9-9-|
e|---------------------------------------------------|

E|---------------------------------------|
B|--12--------------12-14-12-------------|
G|------13-14--14------------14-13-14-14-|
D|---------------------------------------|
A|---------------------------------------|
e|---------------------------------------|

E|---------------------------------------------------|
B|---------------------------------------------------|
G|---------------------------------------------------|
D|---------------------------------------------------|
A|-9-----------9---9---------------------9-9-9-9-9-9-|
e|---------------------------------------------------|

-=-=-=-=-=-=-=-=-=-=-=-=-=--=-=-=-=-=-=-=-=-=-=-=-=-=-=-=-=-=--=-=-=-=-=-=-=-

Two guitars arranged to be played by one.

   E           F           E           C#
E|-----------|-----------|-----------|---------|
B|-----------|-----------|-----------|---------|
G|-13--------|-14--------|-13--------|-10------|
D|-----------|-----------|-----------|---------|
A|-----------|-----------|-----------|---------|
e|-12--------|-14--------|-12--------|--9------|

These are only the notes that John's use, no the exact rhythm of it.

   D     E      F#   D    E     G#  F#   D#    G#  E F#   D   E    C#
E|-----------------|-------------------|---12-----------|------------|
B|---7-----9---10--|---7----9---12--10-|-------12--9/10-|---7---9--6-|
G|-----------------|-------------------|----------------|------------|
D|-----------------|-------------------|----------------|------------|
A|-5-----7------9--|-5----7-----11---9-|-------11--7/9--|-5---7----4-|
e|-----------------|-------------------|-11-------------|------------|

-=-=-=-=-=-=-=-=-=-=-=-=-=--=-=-=-=-=--=-=-=-=-=-=-=-=-=-=-=-=-=--=-=-=-=-=-
Produce By John Frusciante
Mixed By Jimmy Boyled
Mixing Assisted By Brian Grimmel
Mastered By Vlado Meller At Sony Music Studio, New York.
-=-=-=-=-=-=-=-=-=-=-=-=-=--=-=-=-=-=--=-=-=-=-=-=-=-=-=-=-=-=-=--=-=-=-=-=-

            
            
Suggest correction
Creating personal tab
Creating personal tab
You can edit any tab online and save it as your Personal.

You can edit, replace or remove any tab part or add personal notes – all changes will be seen only by you.

Personal tabs can be accessed anytime from any device, even offline.
Learn more »
comments
print report bad tab
8 comments total. Showing first comments.
0 reply
BlocParty 63 Oct 23, 2006 05:46 PM

what about that stumming part?

+1 reply
InsomniaRocks 20 Apr 08, 2007 01:16 PM

This tab is good, but in the first part, you don't need to divide the bassline and the melody, you can play the bass note as the 14th fret of the E-string, using your thumb to hold it down and using hybrid picking...I'm 98% certain he played this song on just one guitar

+1 reply
knux007 36 Apr 27, 2008 05:25 AM

nice work dude, i learned it pretty fast ;)

guest
You may want to rate the tab now too:
select rating
Wanna post a correction for this tab? Suggest correction