Oops, an error
Loading. Please wait.

My Smile Is A Rifle tab

version 2
version 2

Whole song

  • Other version has incorrect order, missing embelli... Show more

Interactive

1,222 views 21 this week
1 commentread comment
1 2 3 4 5
1 last vote to show rating
add to favorites
×
Save as Personal and add changes to this tab that will be seen only by you. Learn more ›
×
You can save this tab as Personal to edit and correct it or add notes. All changes will be seen only by you. Learn more »
launch autoscroll
font size
0
reset
how to read this tab
guitar tuner
edit
Autoscroll
slow
fast
+/-
esc
set tempo
stop
Author
About this tab version
Other version has incorrect order, missing embellishments, some wrong notes (in my opinion). I corrected the other version but some may think it is already correct so submitted as new tab instead. Was this info helpful? Yes No
"My Smile Is A Rifle"
by John Frusciante
from "Niandra LaDes and Usually Just a T-Shirt"

Standard Tuning (out of tune 3/4 fret up around A=457HZ)


[Intro]

   C                   E
e|-----------------------------------|
B|-----------------------------------|
G|-7----9--7----9--7--(9)--8b9-------|
D|-------------------------9---------|
A|-----------------------------------|
E|-8-------8-------8---0---0---------|

   Am                    Em
e|-----------------------------------|
B|-----------------------8-----------|
G|-4/5--7--5----7--5--7----9---------|
D|-----------------------------------|
A|-----------------------------------|
E|-5-------5-------5-----0-----------|

   C                   E
e|-----------------------------------|
B|-----------------------------------|
G|-7----9--7----9--7--(9)--7/9-------|
D|-----------------------------------|
A|-----------------------------------|
E|-8-------8-------8---0---0---------|

   G                                                  E
e|---5--3----5--3-----5--3-----5--3-----5--3----5--3--0--------|
B|----------------------------------------------------0--------|
G|----------------------------------------------------1--------|
D|-5------5-------5--------5--------5--------5--------2--------|
A|----------------------------------------------------2--------|
E|---3------------------------------------------------0--------|

   C                   E
e|-----------------------------------|
B|-----------------------------------|
G|-7----9--7----9--7--(9)--9---------|
D|-------------------------9---------|
A|-----------------------------------|
E|-8-------8-------8---0---0---------|

   Am                        Em
e|-----------------------------------|
B|---------------------------8-------|
G|-5----7--5----7--7h9p7-------9-----|
D|-----------------------9-----------|
A|-----------------------------------|
E|-5-------5-------0---------0-------|

   C                   E
e|-----------------------------------|
B|-----------------------------------|
G|-7----9--7----9--7--(9)--7/9-------|
D|-----------------------------------|
A|-----------------------------------|
E|-8-------8-------8---0---0---------|

   G                           E
e|-----------------------------0--------------|
B|----3-----3-----3-----3------0--------------|
G|------4-----4-----4-----4----1--------1-----|
D|-5------5-----5-----5-----5--2--------------|
A|-----------------------------2--------------|
E|-----------------------------0--------------|


[Verse]

    Am         G        Am        G
e|-------------------------0---0--------------|
B|------5---5--------------5---5--------------|
G|o---------------4--------------------------o| repeat through
D|o------------------5---------------5-------o| whole song
A|--------------------------------------5-----|
E|---5----5----3--------5----5----3-----------|


[Chorus]

   Am          Em         Am        G
e|----0---0------0----0-----0---0-----3----3--|
B|----5---5------5----5-----5---5-----3----3--|
G|--------------------------------------------|
D|--------------------------------------------|
A|--------------------------------------------|
E|-5----5-----0-----0----5----5----3-----3----|



************************************

| (n)  Ghost note
| h    Hammer-on
| p    Pull-off
| b    Bend
| /    Slide up
| o    reprise

************************************

            
            
Suggest correction
Creating personal tab
Creating personal tab
You can edit any tab online and save it as your Personal.

You can edit, replace or remove any tab part or add personal notes – all changes will be seen only by you.

Personal tabs can be accessed anytime from any device, even offline.
Learn more »
Give kudos to tab author, rate the tab!
1 2 3 4 5
comments
print report bad tab
1 comment total.
0 reply
alexxbrisson 10 May 22, 2017 06:09 PM

i don't get how to tune it

guest
You may want to rate the tab now too:
select rating
Wanna post a correction for this tab? Suggest correction