Oops, an error
Loading. Please wait.

Omission tab

version 1
version 1

Whole song

Interactive

16,477 views 24 this week
5 commentsread comments
1 2 3 4 5
x 11
add to favorites
×
Save as Personal and add changes to this tab that will be seen only by you. Learn more ›
×
You can save this tab as Personal to edit and correct it or add notes. All changes will be seen only by you. Learn more »
launch autoscroll
font size
0
reset
how to read this tab
guitar tuner
edit
Autoscroll
slow
fast
+/-
esc
set tempo
stop
Shadows collide with people is a great album and is an essential to any Frusciante/Chili Pepper fan.
This is realy just the chords but i put a few of the leed bits in as well. It undoutedly has some
mistakes but if any one figuers out anything better give me an e-mail O.K!!

the main chord patterns are this, i play a c/g but it sounds fine just as a c
  -c/g (332010)
  -g7  (320001)
  -am  (x02210)
  -f9  (xx3213)

c/g  g7    am f9
omit myself...     x4

c/g             g7              am f9
omit my self as a faviour to god

c/g                          g7          am f9
suffer fate cas its the only lift you got

c/g                 g7         am f9
dedicating all of before to now

c/g                      g7      am  f9       
emphasizing these things you wont allow

the first solo thing goes:

e:--12-10-12---------12-15-12-
b:----------------------------
g:----------------------------
d:----------------------------
a:----------------------------
e:----------------------------

there is a simple chord pattern in the chorus of just 1 or 2 chords but i dont know it
yet so i just tremlo pick the A note on the G string 2nd fret, that seems to work.

for the second solo you tremlo each note:

e:-15---20---19---15------15---13---12---17-----------
b:-//---//---//---//------//---//---//---//-----------
g:-//---//---//---//------//---//---//---//-----------
d:----------------------------------------------------
a:----------------------------------------------------
e:----------------------------------------------------

for the last solo the last note (c) is done electronicaly on the keybords, not on guitar,
so is unnessersery. but it sounds alot better to end the song with if your not playing
along with the cd:

e:-12-15-17-12---12-15-17-12-17(19)(17)---12-15-17-12---13-12-8-15-10-10-----
b:-----------------------------------------------------------------------(13)
g:---------------------------------------------------------------------------
d:---------------------------------------------------------------------------
a:---------------------------------------------------------------------------
e:---------------------------------------------------------------------------

            
            
Suggest correction
Creating personal tab
Creating personal tab
You can edit any tab online and save it as your Personal.

You can edit, replace or remove any tab part or add personal notes – all changes will be seen only by you.

Personal tabs can be accessed anytime from any device, even offline.
Learn more »
comments
print report bad tab
5 comments total. Showing first comments.
0 reply
veets408 10 Mar 19, 2004 07:00 PM

i think the last solo goes like this..........

e-12--15--17-----12--15--17----19b-17---12--15--17-------------15-1212
b------------17------------17----------------------17-18-17-13--------
g---------------------------------------------------------------------
d---------------------------------------------------------------------
a---------------------------------------------------------------------
E---------------------------------------------------------------------

0 reply
Muso* 10 Jan 08, 2007 06:44 PM

i think it's good

0 reply
Mr E 168 Feb 14, 2008 05:36 AM

Have you heard the acoustic version on his website? Nice tab btw!

guest
Wanna post a correction for this tab? Suggest correction