Oops, an error
Loading. Please wait.

Penetrate Time Tab

version 1
version 1

Whole song

13,499 views 30 this week
4 commentsread comments
1 2 3 4 5
x 9
add to favorites
launch autoscroll
font size
0
reset
how to read this tab
guitar tuner
×
Best way to learn
"Penetrate Time"
Autoscroll
slow
fast
+/-
esc
set tempo
stop
Author
John Frusciante - Penetrate Time (Lou Bergs)

Verse 1
e----5-----------------------5---------------------
B--------------5----5h7----------------5-------5h7-
G---------6-----------------------6----------------
D--4----4------------------4----4------------------
A------------4----4------------------4----4/5------
E--------------------------------------------------

Chorus
e--0----2----4----2------
B--2----3----5----3------ listen for
G--2----4----6----2------ strumming
D--2----4----6----0------ pattern
A--0----2----4-----------
E------------------------

Repeat Verse 1

Repeat Chorus

Interlude

Part 1
e--2--2--2--2--0---
B--2--2--2--2--2---
G--2--2--2--2--2---
D--4--4--4--4--2---
A--4--4--4--4--0---
E--2--2--2--2------ 

Part 1 again

Part 2
e--4--4--4--4--0---
B--5--5--5--5--2---
G--6--6--6--6--2---
D--6--6--6--6--2---
A--4--4--4--4--0---
E------------------

Part 1

Part 2

Part 1

Part 2

e---2----4----2------
B---3----5----3------
G---4----6----2------
D---4----6----0------
A---2----4-----------
E--------------------

Solo type thing...
e----5-----------------------------------9------5/7---
B--------------5------5h7-----------------------------
G---------6--------------------6----------------------
D--4----4---------------------------7-----------------
A------------4----4/5------------------7----7\5-------
E----------------------------5----5-------------------

e----5-----------------------------------0--2---
B--------------5------5h7----------------0--3---
G---------6--------------------6------6--1--2--- listen for
D--4----4-----------------------------7--2--0--- strumming
A------------4----4/5-----------------7--2------ pattern
E----------------------------5----5---5--0------

Verse 2
e----5---------------------------------------------
B--------------5------5h7----------------9------7--
G---------6--------------------6-------------------
D--4----4---------------------------7--------------
A------------4----4/5------------------7----7\5----
E----------------------------5----5----------------

e----5-----------------------------------9------5/7---
B--------------5------5h7-----------------------------
G---------6--------------------6----------------------
D--4----4---------------------------7-----------------
A------------4----4/5------------------7----7\5-------
E----------------------------5----5-------------------

e----5----------------------
B--------------5------5h7---
G---------6-----------------
D--4----4-------------------
A------------4----4/5-------
E---------------------------

Outro
e--0----2----4----2----------0--
B--2----3----5----3----------2-- listen for
G--2----4----6----2--end-on--2-- strumming
D--2----4----6----0----------2-- pattern
A--0----2----4---------------0--
E-------------------------------
Suggest correction
comments
print report bad tab
4 comments total. Showing first comments.
+1 reply
ImBrianFellow 50 Apr 07, 2004 08:00 PM

i think part 2 of the interlude is this:

e--4--4--4--4--0---
B--2--2--2--2--2---
G--2--2--2--2--2---
D--4--4--4--4--2---
A--4--4--4--4--0---
E--2--2--2--2------

but i guess it sounds fine either way

0 reply
Arkaic 52 Mar 09, 2007 05:13 PM

nice job man, i love this one.

-2 reply
Side 10 Mar 28, 2007 11:34 AM

You can put a capo on the 9th and play :

------------------------
---10-------------------
-------------9---9/7----
--------11--------------
-9----9-----------------
-----------9---9--------

It's more easy
But good job ...

guest
You may want to rate the tab now too:
select rating
Wanna post a correction for this tab? Suggest correction