Oops, an error
Loading. Please wait.

Samurai Theme Tab

1,313 views 1 this week
no commentswrite comment
1 2 3 4 5
excellent!
x 4
add to favorites
launch autoscroll
font size
0
reset
how to read this tab
guitar tuner
Autoscroll
slow
fast
+/-
esc
set tempo
stop
Help us to improve Ultimate-Guitar.com Take our survey!
×
Author
Difficulty
Tuning
ant0nic14 361
intermediate
D A D G B E
I thought, this song's awesome, how come nobody has uploaded it yet?
So I did :)

Sorry if it's messed up...

At the end I'm showing you in which order the parts are played.

Important: (!) Drop D Tuning (!)




Part 1


Gtr 1
     Bm      F#    G       D             Bm      F#    G         D
||--------------------------------------|----------------------------2---2--|
||-o-------7-----2---------3------------|--------7-----2---------3----------|
||-------7-------3-------4-------2------|------7-------3-------4------------|
||-----9-------4---4---5---------4------|----9-------4---4---5-------0---0--|
||-o---------------------------5---5----|-----------------------------------|
||---9-------4-------5-------0----------|--9-------4-------5----------------|


                                      1.
   Bm      F#    G       D             Bm      F#    G         D
|-------------------------------------|----------------------------2-------||
|--------7-----2---------3------------|--------7-----2---------3---------o-||
|------7-------3-------4-------2------|------7-------3-------4-------------||
|----9-------4---4---5---------4------|----9-------4---4---5-------0-------||
|----------------------------5---5----|----------------------------------o-||
|--9-------4-------5-------0----------|--9-------4-------5-----------------||


 2.
   Bm       F#     G         D
|----------------------------2---2----|
|--------7-----2-------3--------------|
|------7-------3------4---------------|
|----9-------4---4---5-------0---0----|
|-------------------------------------|
|--9-------4-------5------------------|




Part 2


Gtr 1                           1.
    Em      C        D           Am
|-------7-------3----13-12-10-----8-7-5----|
|-o----8-------5-------------10----------o-|
|-----9-------5----------------------------|
|--------------------0---------------------|
|-o-7-------3---------------------0------o-|
|------------------------------------------|


 2.
  Am
|----8-7-5-----------|
|--------------------|
|--------------------|
|--------------------|
|--0-----------------|
|--------------------|




Part 3a (Kinda like part 1 + second guitar))


Gtr 1
   Bm      F#    G       D           x2
|--------------------------------------||
|--------7-----2---------3-----------o-||
|------7-------3-------4-------2-------||
|----9-------4---4---5---------4-------||
|----------------------------5---5---o-||
|--9-------4-------5-------0-----------||


Gtr 2
(only the first time)
|--------------------------------------||
|--17b19-------------------------------||
|--------------------------------------||
|--------------------------------------||
|--------------------------------------||
|--------------------------------------||




Part 3b


Gtr 1
     Bm      F#    G         D             Bm      F#    G           D
|---------------------------------------|----------------------------2----------|
|-o--------7-----2---------3------------|--------7-----2---------3------------o-|
|--------7-------3-------4-------2------|------7-------3-------4----------------|
|------9-------4---4---5---------4------|----9-------4---4---5-------0----------|
|-o----------------------------5---5----|-------------------------------------o-|
|----9-------4-------5-------0----------|--9-------4-------5--------------------|


Gtr 2
|---------------------------------------|------------------------------5-2------|
|-o--------7-----2---------3------------|--------7-----2---------3---------3--o-|
|--------7-------3-------4--------------|------7-------3-------4----------------|
|------9-------4---4---5----------------|----9-------4---4---5------------------|
|-o-------------------------------------|-------------------------------------o-|
|---------------------------------------|---------------------------------------|




Part 4 (like part 2 + second guitar)


Gtr 1                           1.
    Em      C        D           Am            Em      C        D           Am
|-------7-------3----13-12-10-----8-7-5----|-------7-------3----13-12-10-------8-7-5---|
|-o----8-------5-------------10------------|------8-------5-------------10-----------o-|
|-----9-------5----------------------------|-----9-------5-----------------------------|
|--------------------0---------------------|--------------------0----------------------|
|-o-7-------3---------------------0--------|---7-------3---------------------0-------o-|
|------------------------------------------|-------------------------------------------|


Gtr 2
    Em         C     D           Am            Em        C      D           Am
|-----5--3--7---------------3--5-(5)-------|----5--3--7---------------3--5-------------|
|-o------------5------3--5-----------------|-------------5------3--5-----------------o-|
|------------------------------------------|--------------------------------2----------|
|------------------------------------------|-------------------------------------------|
|-o----------------------------------------|-----------------------------------------o-|
|------------------------------------------|-------------------------------------------|




Part 5  (1st guitar kinda like part 1/3 + second guitar)


Gtr 1
     Bm      F#    G         D             Bm      F#      G         D
|---------------------------------------|----------------------------2---2----|
|-o--------7-----2---------3------------|--------7-----2---------3----------o-|
|--------7-------3-------4-------2------|------7-------3-------4--------------|
|------9-------4---4---5---------4------|----9-------4---4---5-------0---0----|
|-o----------------------------5---5----|-----------------------------------o-|
|----9-------4-------5-------0----------|--9-------4-------5------------------|


Gtr 2
   Bm           F#         G           D               Bm           F#         G         
 D
|------14-12-10-9-10-12-14-10----10----10----10------|-----14-12-10-9-10-12-14-17------17-------|
|-o---------------------------12----10---------------|----------------------------15------15--o-|
|-----------------------------------------12----11---|------------------------------------------|
|----------------------------------------------------|------------------------------------------|
|-o--------------------------------------------------|----------------------------------------o-|
|----------------------------------------------------|------------------------------------------|




Solo (part 6)


Gtr 1
     Bm      F#    G         D             Bm      F#      G         D    x2
|---------------------------------------|----------------------------2---2--|
|----------7-----2---------3------------|--------7-----2---------3----------|
|--------7-------3-------4-------2------|------7-------3-------4------------|
|------9-------4---4---5---------4------|----9-------4---4---5-------0---0--|
|------------------------------5---5----|-----------------------------------|
|----9-------4-------5-------0----------|--9-------4-------5----------------|



Gtr 2 (Solo)

|-----------------------------------------------------------------------|
|--17b19------15-17-17b19--14b15r14----12-14-15-------------------------|
|-----------------------------------------------12b14-11---9b11r9--6-7--|
|-----------------------------------------------------------------------|
|-----------------------------------------------------------------------|
|-----------------------------------------------------------------------|

----------------------------------|
----------------------------------|
-9b11r9--9b11r9---6-7-------------|
----------------------------------|
-----------------------9-9-9-9-9/-|
----------------------------------|



And it goes like this

Part 1
Part 2
Part 3
Part 4
Part 5
Part 6 (Solo)
Part 2 x2
Part 5
Part 2
Part 3b x2

Mini Solo
|---------------------------------------------------|
|----14b15-14b15-14b15---(r14)----------------------|
|---------------------------------------------------|
|---------------------------------------------------|
|---------------------------------------------------|
|---------------------------------------------------|

|------------------------------------------------------|
|----14b15-14b15-14b15--(r14)--12---10--7--5-5/--------|
|------------------------------------------------------|
|------------------------------------------------------|
|------------------------------------------------------|
|------------------------------------------------------|

Part 4 Fade out
Suggest correction
What's this?
You can suggest a correction to this tab. Community and Mods will review your correction and vote to approve or reject it.
comments
print report bad tab
guest
You may want to rate the tab now too:
select rating
Please do not post tabs as comments. Select "correction" instead!