Oops, an error
Loading. Please wait.

Scratches Tab

version 1
version 1

Whole song

  • I made this tab based off of this video https://ww... Show more

Interactive

61 views 6 this week
no commentswrite comment
1 2 3 4 5
3 more votes to show rating
add to favorites
launch autoscroll
font size
0
reset
how to read this tab
guitar tuner
Autoscroll
slow
fast
+/-
esc
set tempo
stop
Help us to improve Ultimate-Guitar.com Take our survey!
×
Author
Difficulty
intermediate
About this tab version
I made this tab based off of this video https://www.youtube.com/watch?v=TC7swVBm2rY (it is not mine). The tabs this person provided were hand-written, so I did my best to decipher it. I hope you enjoy. Was this info helpful? Yes No
[Intro:]  


  
e|--------|--------|----------|---------|----------|
B|--9-----|--8-----|--9-------|--8------|--------8-|
G|-----10-|--------|-----10---|---------|-7--6-----|
D|-----10-|-----10-|-----10---|------10-|----------|                   
A|--8-----|--------|--8-------|---------|--------6-|
E|--------|--8-----|----------|--8------|-6--6-----|
 
[Part A] 

e|------------------------------------|---------------------------------------|
B|-----9------------------9-----------|------9--------------------------------|
G|-----10----10--------------10-------|------10-----10------------------8h10--|
D|-----------------10-----------10----|--------------------10------8h10-------|
A|--8-----8-----8------8--------------|--8-------8------8------8--------------|
E|------------------------------------|---------------------------------------|

e|------------------------------------|---------------------------------------|
B|-----9--------------------9---------|-----8-------------8-------------------|
G|-----10-----10---------------10-----|-----8---8-----------8-----------------|
D|------------------10------------10--|--------------8--------8---------------|
A|--8------8-----8------8-------------|--6----6---6----6----------------------|
E|------------------------------------|---------------------------------------|

e|---------------------------|--------------------------------|------------------------------|
B|-----6---------------6-----|-----9--------------------------|-----9----------------11--9---|
G|-----6----6-----------6----|-----10---10---------------8h10-|-----10---10------------------|
D|---------------6-------6---|----------------10----8h10------|----------------10------------|
A|--4----4----4-----4--------|--8-----8----8-----8------------|--8-----8----8------8-------8-|
E|---------------------------|--------------------------------|------------------------------|

e|----------------------------|------------------------------------|
B|-----8---------------8h9----|-----6----------------6-------------|
G|-----8----8--------------8--|-----6----6-------------6-----------|
D|---------------8------------|----------------6---------6---------|
A|--6----6----6----6----------|--4----4----4-----4-----------------|
E|----------------------------|------------------------------------|


[Part B]

e|-----------|--------|---------|---------|---------|--------|-------------------------------|
B|-----9-----|-----8--|------1--|------8--|------1--|-----8--|-----1-------------------------|
G|-----10----|-----8--|------1--|------8--|------1--|-----8--|-----1-------------------------|
D|-----------|--------|---3-----|---------|---3-----|--------|--3-------3---------3----------|
A|--8-----8--|--6-----|---3-----|--6------|---3-----|--6-----|--3------------3-------3-------|
E|-----------|--------|---1-----|---------|---1-----|--------|--1----1----1-----1-------1----|

[Intro]
e|--------|--------|----------|---------|----------|
B|--9-----|--8-----|--9-------|--8------|--------8-|
G|-----10-|--------|-----10---|---------|-7--6-----|
D|-----10-|-----10-|-----10---|------10-|----------|                   x2
A|--8-----|--------|--8-------|---------|--------6-|
E|--------|--8-----|----------|--8------|-6--6-----|

[Part A, with a little variation this time, like this:] 

e|------------------------------------|---------------------------------------|
B|-----9-----------------11--9--------|------9--------------------------------|
G|-----10----10-----------------10----|------10-----10------------------8h10--|
D|-----------------10-----------------|--------------------10------8h10-------|
A|--8-----8-----8-----8---------------|--8-------8------8------8--------------|
E|------------------------------------|---------------------------------------|

e|------------------------------------|---------------------------------------|
B|-----9------------------11--9-------|-----8-------------8-------------------|
G|-----10-----10-----------------10---|-----8---8-----------8-----------------|
D|------------------10----------------|--------------8--------8---------------|
A|--8------8-----8-----8--------------|--6----6---6----6----------------------|
E|------------------------------------|---------------------------------------|

e|---------------------------|--------------------------------|------------------------------|
B|-----6---------------6-----|-----9--------------------------|-----9----------------11--9---|
G|-----6----6-----------6----|-----10---10---------------8h10-|-----10---10------------------|
D|---------------6-------6---|----------------10----8h10------|----------------10------------|
A|--4----4----4-----4--------|--8-----8----8-----8------------|--8-----8----8------8-------8-|
E|---------------------------|--------------------------------|------------------------------|

e|----------------------------|------------------------------------|
B|-----8---------------8h9----|-----6----------------6-------------|
G|-----8----8--------------8--|-----6----6-------------6-----------|
D|---------------8------------|----------------6---------6---------|
A|--6----6----6----6----------|--4----4----4-----4-----------------|
E|----------------------------|------------------------------------|


[Part B}

e|-----------|--------|---------|---------|---------|--------|-------------------------------|
B|-----9-----|-----8--|------1--|------8--|------1--|-----8--|-----1-------------------------|
G|-----10----|-----8--|------1--|------8--|------1--|-----8--|-----1-------------------------|
D|-----------|--------|---3-----|---------|---3-----|--------|--3-------3---------3----------|
A|--8-----8--|--8-----|---3-----|--6------|---3-----|--6-----|--3------------3-------3-------|
E|-----------|--------|---1-----|---------|---1-----|--------|--1----1----1-----1-------1----|


[Part A again with the same variation:]

e|------------------------------------|---------------------------------------|
B|-----9-----------------11--9--------|------9--------------------------------|
G|-----10----10-----------------10----|------10-----10------------------8h10--|
D|-----------------10-----------------|--------------------10------8h10-------|
A|--8-----8-----8-----8---------------|--8-------8------8------8--------------|
E|------------------------------------|---------------------------------------|

e|------------------------------------|---------------------------------------|
B|-----9------------------11--9-------|-----8-------------8-------------------|
G|-----10-----10-----------------10---|-----8---8-----------8-----------------|
D|------------------10----------------|--------------8--------8---------------|
A|--8------8-----8-----8--------------|--6----6---6----6----------------------|
E|------------------------------------|---------------------------------------|

e|---------------------------|--------------------------------|------------------------------|
B|-----6---------------6-----|-----9--------------------------|-----9----------------11--9---|
G|-----6----6-----------6----|-----10---10---------------8h10-|-----10---10------------------|
D|---------------6-------6---|----------------10----8h10------|----------------10------------|
A|--4----4----4-----4--------|--8-----8----8-----8------------|--8-----8----8------8-------8-|
E|---------------------------|--------------------------------|------------------------------|

e|----------------------------|------------------------------------|
B|-----8---------------8h9----|-----6----------------6-------------|
G|-----8----8--------------8--|-----6----6-------------6-----------|
D|---------------8------------|----------------6---------6---------|
A|--6----6----6----6----------|--4----4----4-----4-----------------|
E|----------------------------|------------------------------------|

[Outro]

The outro is chords :

e|-------|-----|-----|-----|-----|-----|-----|-----|-----|
B|---4---|--9--|--6--|--4--|--9--|--6--|--4--|--9--|--6--|
G|---5---|--8--|--6--|--5--|--8--|--6--|--5--|--8--|--6--|
D|---6---|--8--|--8--|--6--|--8--|--8--|--6--|--8--|--8--|
A|---6---|--8--|--8--|--6--|--8--|--8--|--6--|--8--|--8--|
E|---4---|-----|--6--|--4--|-----|--6--|--4--|-----|--6--|

 e|--1---|-------|--1--|-----|--1--|-----|--1--|
 B|--1---|---4---|--1--|--4--|--1--|--9--|--1--|
 G|--1---|---6---|--1--|--6--|--1--|--8--|--1--|
 D|--3---|---6---|--3--|--6--|--3--|--8--|--3--|   x2
 A|--3---|---6---|--3--|--6--|--3--|--8--|--3--|
 E|--1---|---4---|--1--|--4--|--1--|-----|--1--|


 e|--1--|-----|-----|--1--|------------|
 B|--1--|--9--|--4--|--1--|------------|
 G|--1--|--8--|--6--|--1--|-------8h10-|
 D|--3--|--8--|--6--|--3--|-8h10-------|
 A|--3--|--8--|--6--|--3--|------------|
 E|--1--|--8--|--4--|--1--|------------|

      
 e|--1--|-----|-----|--1--|-----|--1--|-----|--1--|
 B|--1--|--9--|--4--|--1--|--9--|--1--|--9--|--1--|
 G|--1--|--8--|--6--|--1--|--8--|--1--|--8--|--1--|
 D|--3--|--8--|--6--|--3--|--8--|--3--|--8--|--3--|
 A|--3--|--8--|--6--|--3--|--8--|--3--|--8--|--3--|
 E|--1--|--8--|--4--|--1--|--8--|--1--|--8--|--1--|



************************************

| x   Dead note
| g   Grace note
| (n) Ghost note
| h   Hammer-on
| p   Pull-off


************************************
Suggest correction
Give kudos to tab author, rate the tab!
1 2 3 4 5
comments
print report bad tab
guest
You may want to rate the tab now too:
select rating
Wanna post a correction for this tab? Suggest correction