Oops, an error
Loading. Please wait.

Second Walk Bass Tab

version 2
version 2

Whole song

Interactive

518 views 1 this week
no commentswrite comment
1 2 3 4 5
3 more votes to show rating
add to favorites
launch autoscroll
font size
0
reset
guitar tuner
Autoscroll
slow
fast
+/-
esc
set tempo
stop
Help us to improve Ultimate-Guitar.com Take our survey!
×
Author
Difficulty
intermediate
Intro/Verses
G|----------------------------|
D|----------------------------|
A|----------------------------|
E|--5-5/--0-0--0-2-2--0-2-2--0|

First Solo/Chorus
G|----------------------------|
D|----------------------------|
A|---------7-7--7/9-9---------|
E|--5-5--0------------9/2-2--4|

End Solo (slows down)
G|---------------------------------|
D|---------------------------------|
A|------0h4/7-7--9/11-9-9----------|
E|-5-5---------------------9/2-2--4|



(Courtesy Greg from Kids on Bikes)
Suggest correction
Give kudos to tab author, rate the tab!
1 2 3 4 5
comments
print report bad tab
guest
You may want to rate the tab now too:
select rating
Wanna post a correction for this tab? Suggest correction