Oops, an error
Loading. Please wait.

Smile From The Streets You Hold Tab

version 2
version 2

Live

Whole song

Interactive

86 views 1 this week
no commentswrite comment
1 2 3 4 5
please rate
add to favorites
launch autoscroll
font size
0
reset
how to read this tab
guitar tuner
Autoscroll
slow
fast
+/-
esc
set tempo
stop
Help us to improve Ultimate-Guitar.com Take our survey!
×
Author
Difficulty
intermediate
This version of the song is pretty much a hybrid of a live version and the 
recording from his album. 



F    C       A#
It's been so long 

                    F           C         A#
Since I've felt the heat of the sun on my palm,

A
You're the one who knows me best 

          A#             C           F
Would you please put yourself to the test.

         F     C        A#
You're a smiiiiiile from the streets

            F           C               A#
You hold my heart in my hands while I'm beat.

A                 A#
Oh, you're always on the decline

A#               C      F
You take another sip of wine -

D#         A#
A toast to us.

D#                  A#
You're the one with the stars.

D#                  A#               Cm
All the people that know you say you are

D# A# Cm Gm

G#           C#m          C#           Fm                         
You held a   sign for the one that you are



C#          F#m
That you... that you...

C# part                                    F#m part
e|---------------------------------------|-------------------------------------| 
B|------------6--------------------------|--------------9----------------------|
G|---------------------------------------|-------------------------------------|
D|---------------------------------------|-------------------------------------|
A|---4--4--------------------------------|------8--8---------------------------|
E|---------------------------------------|-------------------------------------|



[SECTION II]

Esus2 part                                   Gsus2 part

e|---------------------------------------|-------------------------------------------| 
B|------------7------------------7-------|--------------10--------------------10-----|
G|---------------------------------------|-------------------------------------------|
D|--------9------9-----------9------9----|-----------12-----12-------------12----12--|
A|---7------------------7----------------|------10-------------------10--------------|
E|---------------------------------------|-------------------------------------------|

Em part
e|---------------------------------------|
B|------------8------------------8-------|
G|---------------------------------------|
D|--------9------9-----------9------9----|
A|---7------------------7----------------|
E|---------------------------------------|

D part                                     C part

e|---------------------------------------|-------------------------------------| 
B|----------7------------------7---------|-----------5--------------------5----|
G|---------------------------------------|-------------------------------------|
D|------7-----7----------7---------7-----|---------5---5-------------5------5--|
A|---5--------------5--------------------|------3-------------3----------------|
E|---------------------------------------|-------------------------------------|



Gsus2                   D
You're the one in the sky,

            Em
Where'd you go?

C               D                 C
You know you're where the planets grow

              Em  G    D    C     Bm      A
You're in the sun I'll face it to go in a hole

  G       F
oh oh yeaaaeeaaah
Suggest correction new What's this?
You can suggest a correction to this tab. Community and Mods will review your correction and vote to approve or reject it.
comments
We did not receive enough feedback on this tab! Please rate:
print report bad tab
1 2 3 4 5
guest
You may want to rate the tab now too:
select rating
Please do not post tabs as comments. Select "correction" instead!