Oops, an error
Loading. Please wait.

Smile From The Streets You Hold Tab

version 1
version 1

Solo

Whole song

Interactive

1,820 views 3 this week
no commentswrite comment
1 2 3 4 5
please rate
add to favorites
launch autoscroll
font size
0
reset
how to read this tab
guitar tuner
Autoscroll
slow
fast
+/-
esc
set tempo
stop
Help us to improve Ultimate-Guitar.com Take our survey!
×
Author
Difficulty
intermediate
Tabbed by:numb82
Email:vanwykandrei@yahoo.com
This is the rythmn picking of the song and the majority of the solo which in some places 
played with backwards effects but the solo doesn't change drastically only a few notes 
backward.

Tuning:standard
picking that goes through the whole solo.
play slowly through the whole solo
e|-----------------------------------------------------------------|
B|-----------------------------------------------------------------|
G|----------10-10------10-10---------------10-10------10-10--------|
D|----------10-10------10-10---------------10-10------10-10--------|
A|---8-8------------8----------8-8---------------------------------|
E|------------------------------------9-9----------9----------9-9--|

main guitar:this is sung at part's "That you... that you..."
e|---------------------------------15---------------------------------------|
B|--------------------------------------16-----13--16-14--13--13-13/9---13--|
G|---10--8-10v--------------------------------------------------------------|
D|--------------------------------------------------------------------------|
A|--------------------------------------------------------------------------|
E|--------------------------------------------------------------------------|

e|---18-18-18-18-18/16--15h16p15-15h16p15-15h16p15-15h16p15--8-8-8-8-8--4v--1--|
B|-----------------------------------------------------------------------------|
G|-----------------------------------------------------------------------------|
D|-----------------------------------------------------------------------------|
A|-----------------------------------------------------------------------------|
E|-----------------------------------------------------------------------------|

e|-----------------------------------------------------------------------------|
B|--13/0-13/0-13/0-------------------------------------------13-13-13-13v-13v--|
G|-----------------------------------------------------------------------------|
D|---------------------0/10-0/10-0/10-0/10-0/10-0/10---------------------------|
A|-----------------------------------------------------------------------------|
E|-----------------------------------------------------------------------------|

e|-----------18-16-18-16--20v---------------------------22v-22v-22v---17/8-8-8-8--|
B|--------------------------------------------------------------------------------|
G|-------------------------------------0/5----------------------------------------|
D|--------------------------------------------------------------------------------|
A|--------------------------------------------------------------------------------|
E|--------------------------------------------------------------------------------|
{2:54}
e|----13----------------101010101010-11111111111111(do this numerous times) -|
B|---------------------------------------------------------------------------|
G|-------------10------------------------------------------------------------|
D|---------------------------------------------------------------------------|
A|---------------------------------------------------------------------------|
E|---------------------------------------------------------------------------|
{3:29}
e|---15------------------------------------------------------------|
B|----------11b----------------------------------------------------|
G|---------------------13v----------(do this numerous times also}--|
D|-----------------------------------------------------------------|
A|-----------------------------------------------------------------|
E|-----------------------------------------------------------------|
{3:37}PICK 13 WITH SOME FILL WITH IMPROVISING SMALL SLOW NOTES.
e|--------------------------------------------------------------------------------------|
B|--13-13-13-13-------------------------------------------------------------------------|
G|--------------------------------------------------------------------------------------|
D|--------------------------------------------------------------------------------------|
A|--------------------------------------------------------------------------------------|
E|--------------------------------------------------------------------------------------|
HERE IS WHERE RYTHMN SPEEDS UP (3:50}PICK 6 WITH SOME FILL WITH IMPROVISING SMALL SLOW NOTES

e|------------------------------------------------------------------------------------|
B|-----6-6-6-6------------------------------------------------------------------------|
G|------------------------------------------------------------------------------------|
D|------------------------------------------------------------------------------------|
A|------------------------------------------------------------------------------------|
E|------------------------------------------------------------------------------------|
THEN STRUM THE RYTHMN NOTE TILL THE END WHEN YOU START DOIND THE ARPEGGIOS

CHORD 1
e|-------------------------------------------------------------------------------|
B|--------------------7--------------------7-------------------------------------|
G|-------------------------------------------------------------------------------|
D|--------------9---------------------9------------------------------------------|
A|-----7------------------------7------------------------------------------------|
E|-------------------------------------------------------------------------------|
CHORD 2
e|---------------------------------------------------------------------------------|
B|--------------------10----------------------10-----------------------------------|
G|---------------------------------------------------------------------------------|
D|----------12-------------------------12------------------------------------------|
A|-----10--------------------------10----------------------------------------------|
E|---------------------------------------------------------------------------------|
CHORD 3
e|----------------------------------------------------------------------------------|
B|--------------8--------------------8----------------------------------------------|
G|----------------------------------------------------------------------------------|
D|---------9-------------------9----------------------------------------------------|
A|----7----------------7------------------------------------------------------------|
E|----------------------------------------------------------------------------------|
CHORD 4
e|-------------------------------------------------------------------------------|
B|-----------------------5-----------------5-------------------------------------|
G|--------------------5-----------------5----------------------------------------|
D|-----------------5------------------5------------------------------------------|
A|------3------------------------3-----------------------------------------------|
E|-------------------------------------------------------------------------------|
CHORD 5
e|-------------------------------------------------------------------------------|
B|-----------------5------------------5------------------------------------------|
G|-------------------------------------------------------------------------------|
D|-----------5----------------5--------------------------------------------------|
A|-----7------------------7------------------------------------------------------|
E|-------------------------------------------------------------------------------|
Suggest correction
Give kudos to tab author, rate the tab!
1 2 3 4 5
comments
print report bad tab
guest
You may want to rate the tab now too:
select rating
Please do not post tabs as comments. Select "correction" instead!