Oops, an error
Loading. Please wait.

Song To Sing When Im Lonely Bass Tab

version 1
version 1

Whole song

Interactive

1,490 views 3 this week
no commentswrite comment
1 2 3 4 5
please rate
add to favorites
launch autoscroll
font size
0
reset
guitar tuner
Autoscroll
slow
fast
+/-
esc
set tempo
stop
Help us to improve Ultimate-Guitar.com Take our survey!
×
Author
MY BASS INTERPRETATION OF JOHN FRUSCIANTE'S A SONG TO SING WHEN IM LONELY
IT IS A TRULY AMAZING SONG.
THIS IS HOW I PLAY IT PERSONALLY SO PLEASE TELL ME WHAT YOU THINK OF IT

CHEERS


INTRO
 G--------------------------------------------------------------|
 D--9~----------------------------------------------------------|
 A----------------6~------------4~------------------------------|
 E-------------------------------------------4~-----------------|

VERSE
 G--------------------------------------------------------------|
 D--9-9/11\-999------8/9-----------6/8--------------------------|
 A----------------6------9-8-6---4-----8--6------6/7------------|
 E--------------------------------------------4-------7-6~------|

CHORUS
 G--------------------------------------------------------------|
 D--------------------------------------------------------------|
 A-------------4-44-44------------------------------------------|X3
 E---2-22-22-------------4-44-44-------4-44-44------------------|


 G--------------------------------------------------------------|
 D--------------------------------------------------------------|
 A----44-----------------44--------------------2----------------|
 E--------22----4444---------22---4444--------------------------|


 G---------------------------------------|
 D---------------------------------------|
 A---2222222222222222--------------------|X2
 E------------------------2~---4~--------|

 G--------------------------------------------|
 D--------------------------------------------|
 A--------------------------------------------|
 E---2--4444----2-4444-----2-4444-----2-4444--|

THATS THE FIRST BIT YOU CAN WORK THE REST OUT FROM THAT
Suggest correction
Give kudos to tab author, rate the tab!
1 2 3 4 5
comments
print report bad tab
guest
You may want to rate the tab now too:
select rating
Wanna post a correction for this tab? Suggest correction