Oops, an error
Loading. Please wait.

Song To Sing When Im Lonely Tab

version 2
version 2

Whole song

Interactive

85,062 views 201 this week
7 commentsread comments
1 2 3 4 5
x 28
add to favorites
launch autoscroll
font size
0
reset
how to read this tab
guitar tuner
×
Best way to learn
"Song To Sing When Im Lonely"
Autoscroll
slow
fast
+/-
esc
set tempo
stop
Author
Difficulty
  follow
intermediate
[Intro]
e|-------2-------------6-------------4-------------4-----|
B|-----4---4---------7---7---------6---6---------4---4---|
G|---4-------4-----8-------8-----6-------6-----4-------4-|
D|-4-------------8-------------6-------------6-----------|
A|-------------------------------------------------------|
E|-------------------------------------------------------|

e|-------2--------------6-------------4--------------4---------4-----4-----4-|
B|-----4---4----------7---7---------6---6----------4---4-----4-----4-----4---|
G|---4-------4------8-------8-----6-------6------4-------4-------------------|
D|-4-----------4--8-------------6-----------6--6-----------6-----6-----6-----|
A|---------------------------------------------------------------------------|
E|---------------------------------------------------------------------------|

[Riff 1]
e|-2-------2-------2-----4-------4-----4-----4-------4-|
B|----2-------2-------------5-------5-----------4------|
G|-------3-------3-------------5-------5-----------4---|
D|-----------------------------------------------------|
A|-----------------------------------------------------|
E|-----------------------------------------------------|

[Riff 2]
e|-2-----2-----2---4-----4-----4---4-----4-----4----4-6-4-2/1/2-|
B|---2-----2---------6-----6---------4-----4-----4--------------|
G|-----3-----3---------6-----6---------4-----4------------------|
D|--------------------------------------------------------------|
A|--------------------------------------------------------------|
E|--------------------------------------------------------------|

e|-2-----2-----2---4-----4-----4---4-----4-----4----6-8-6-3/4-|
B|---2-----2---------6-----6---------4-----4-----4------------|
G|-----3-----3---------6-----6---------4-----4----------------|
D|------------------------------------------------------------|
A|------------------------------------------------------------|
E|------------------------------------------------------------|

e|-2-----2-----2---4-----4-----4---4-----4-----4----4-6-4-2-|
B|---2-----2---------6-----6---------4-----4-----4----------|
G|-----3-----3---------6-----6---------4-----4--------------|
D|----------------------------------------------------------|
A|----------------------------------------------------------|
E|----------------------------------------------------------|

e|-2------2-----2---4-----4-----6---4-----4-|
B|---2------2---------5-----5---------4---4-|
G|-----3------3---------5-----5---------4-4-|
D|----------------------------------------6-|
A|----------------------------------------6-|
E|----------------------------------------4-|

   B                Ebm
A song to play when I'm lonely
   C#                G#m
win and never play a game again
   B                Ebm
no one to face when I'm falling
   C#                G#m
holding tight to dreams that never end

   F#         C#        G#m
I'll be you, I do, I'll be you
                      F#     C#     G#m
no one's afraid to be called by another name
                      Riff 1                      G#m(P.M)
no one dares to be put down where we don´t belong
G#m              F# C#
nowhere's anyone reason
G#m                  F# C#
everything dying and leaving
B(P.M)                                       F# G#m
out with these faults and you make me a baby
B(P.M)                                    F# G#m
facking a movement but no one's seeing it
F#     G#m          F#        G#m
no one always finds pleace to flung
F#     G#m          F#        G#m
no one chooses to beat my pride down

   B                  Ebm
Symbols pierce right through me
   C#              G#m
People fail to be drawn up
   B               Ebm
Sunlight to fate accumalates
   C#             G#m
Loving pain to be clung to

F# C#     G#m
Lu-minous bodies
                 F#   C#          G#m
Only waiting for long signs to be wrong
              G#m(P.M)
And true to us
G#m                F#  C#
Out of place in my own time
G#m                    F#  C#
Drowning thinking that I'm dry
B(P.M)                                    F# G#m
Holding onto facts that'll never be proven
B(P.M)                                F# G#m
Faking an action cuz no one's looking
F#   G#m       F#  G#m
Hello when I'm crashing
F#           G#m            F#       G#m            riff 2 (up to the end)
Feel nothing when my life's flashing before my eyes

You should've threw me down
Is the content so much
You should've threw me down
Is the content so much
You should've threw me down
Is the content so much
You should've threw me down
Is the content so much

Suggest correction
comments
print report bad tab
7 comments total. Showing first comments.
0 reply
RHCP_ARG 51 Mar 21, 2006 07:41 AM

IS A good tab

+4 reply
Unity4Eons 51 Dec 29, 2006 09:29 PM

Yo, great tab dude. You even nailed all the interludes and shit, Thats good stuff. I always like to see a good Frusciante tab and this definetly is. Frusciante Rocks and so Do the Chili Peppers.

0 reply
ilikedirt 10 Feb 19, 2007 12:04 AM

nicely done

guest
You may want to rate the tab now too:
select rating
Wanna post a correction for this tab? Suggest correction