Oops, an error
Loading. Please wait.

Sum Bass Tab

251 views 1 this week
no commentswrite comment
1 2 3 4 5
3 more votes to show rating
add to favorites
launch autoscroll
font size
0
reset
guitar tuner
Autoscroll
slow
fast
+/-
esc
set tempo
stop
Help us to improve Ultimate-Guitar.com Take our survey!
×
Author
Difficulty
novice
------------------------------------------------------------------
SUM - John Frusciante
------------------------------------------------------------------

Tabbed by - M,eth
Album - PBX Funicular Intaglio Zone
Bassist - John Frusciante



G|---------------|---------------|---------------|---------------|
D|5------3-------|1--------------|-------3-------|-------3-------|
A|---------------|---------------|1--------------|1--------------|
E|---------------|---------------|---------------|---------------| x2

G|---------------|---------------|
D|5--------------|---------------|
A|---------------|---------------|
E|---------------|3--------------|


And I ve seen...
G|---------------|---------------|---------------|---------------|
D|1--------------|-------5-------|---------------|---------------|
A|-------1-------|3--------------|---------------|---------------|
E|---------------|---------------|---------------|---------------|


You are the apple...
G|---------------|---------------|---------------|---------------|
D|5------3-------|1--------------|-------3-------|-------3-------|
A|---------------|---------------|1--------------|1--------------|
E|---------------|---------------|---------------|---------------|

G|---------------|---------------|---------------|---------------|
D|5------3-------|1--------------|-------3-------|-----1/3--3/5--|
A|---------------|---------------|1--------------|1--------------|
E|---------------|---------------|---------------|---------------|


In every sound...
G|---------------|---------------|---------------|---------------|
D|5------3-------|1--------------|-------3-------|-------3-------|
A|---------------|---------------|1--------------|1--------------|
E|---------------|---------------|---------------|---------------| x2

G|---------------|---------------|---------------|
D|-------3-------|5--------------|---------------|
A|1--------------|---------------|---------------|
E|---------------|---------------|3--------------|


So we have to join...
G|---------------|---------------|---------------|---------------|
D|1--------------|-------5-------|1--------------|-------5-------|
A|-------1-------|3--------------|-------1-------|3--------------|
E|---------------|---------------|---------------|---------------|


You are the apple...
G|---------------|---------------|---------------|---------------|
D|5------3-------|1--------------|-------3-------|-------3-------|
A|---------------|---------------|1--------------|1--------------|
E|---------------|---------------|---------------|---------------| x2

G|---------------|---------------|---------------|
D|-------3-------|5--------------|---------------|
A|1--------------|---------------|---------------|
E|---------------|---------------|3--------------|

G|---------------|---------------|---------------|---------------|
D|1--------------|---------------|1--------------|---------------|
A|-------1-------|3--------------|-------1-------|3--------------|
E|---------------|-------3-------|---------------|-------3-------|


G|---------------|---------------|---------------|---------------|
D|5------3-------|1--------------|-------3-------|-------3-------|
A|---------------|---------------|1--------------|1--------------|
E|---------------|---------------|---------------|---------------| etc..
Suggest correction
Give kudos to tab author, rate the tab!
1 2 3 4 5
comments
print report bad tab
guest
You may want to rate the tab now too:
select rating
Wanna post a correction for this tab? Suggest correction