Oops, an error
Loading. Please wait.

The Battle Of Time Tab

6,261 views 6 this week
2 commentsread comments
1 2 3 4 5
x 7
add to favorites
launch autoscroll
font size
0
reset
how to read this tab
guitar tuner
Autoscroll
slow
fast
+/-
esc
set tempo
stop
Help us to improve Ultimate-Guitar.com Take our survey!
×
Author
Artist: John Frusciante
Album: From the Sounds Inside
Song: The Battle Of Time


F#m                 E         
Seems to be away is peachy now
F#m              D      E 
Feel like may be far at all
F#m                       E 
I've got these clothes to deceive me 
F#m            D   E
I've been lost all along
C#m          D             
You've got a mouth that's bigger 
C#m        D
I've got a man on the side 
F#m    E       Bm   D  E
You'll see my lie 


F#m                  E
You've got a town to speak to 
F#m        D      E
You've got rented dye 
F#m               E
I drive it around somewhere 
F#m      D   E
Before I was alive 
C#m  D           C#m  D
I    was alive   _________ 


F#m                    E
You've got a mountain beneath you 
Bm                     F#m    A  E Bm
You're always known in archives 

F#m  A  E  Bm


F#m   A  E  Bm       F#m   A
I'll always have the side 
E                Bm    F#m
All the times of hate 
 A   E      Bm       F#m  A  E  Bm
All around, is this here     Hey Hey Hey...



A            E       Bm
You've got a running see-saw (it's me inside) 
A        E    Bm                               F#m
That's what I heard (it's the battle of time) 
  A    E      Bm         F#m   A     E       Bm
I have always felt fine             (I know, hey) 
F#m  A       E      Bm
I've nothing no-one nowhere 

 
F#m  A     E   Bm
           Hey Hey Hey... 



SOLO Chords: F#m  A  E  Bm  (End on F#m)


SOLO:

|-14-12----12-----------------------------------------------------------|
|-------14-------14-12-10-12----10--------------------------------------|
|----------------------------------11-9-11----9-------------------------|
|-----------------------------------------------11-9-11-----9-----------|
|-------------------------------------------------------------12-9-12---|
|-----------------------------------------------------------------------|


|-14-12----12-------------------12-12--------------------------|
|-------14-------14-12-10-12----------14----12b14--12----------|
|--------------------------------------------------------------|
|--------------------------------------------------------------|
|--------------------------------------------------------------|
|--------------------------------------------------------------|


|-14-12----12-----------------------------------------------------------|
|-------14-------14-12-10-12----10--------------------------------------|
|----------------------------------11-9-11----9-------------------------|
|-----------------------------------------------11-9-11-----9-----------|
|-------------------------------------------------------------12-9-12---|
|-----------------------------------------------------------------------|¨


|-----------------------------------------------------------------------------------------|
|----------------------------12b14-12b14-12b14-12b14-12b14-12b14-12b14-12b14-12b14-----10-|
|------9-------------9--------------------------------------------------------------11----|
|-9h11---11-----9h11----------------------------------------------------------------------|
|----------------------9------------------------------------------------------------------|
|-----------------------------------------------------------------------------------------|

(Hahha im not sure if the lyrics are right, i took it from letssingit.com) 



Suggest correction
comments
print report bad tab
2 comments total.
+1 reply
daniel731 106 Nov 01, 2009 11:17 AM

great tab, thanks!

0 reply
guitarguy987651 10 Oct 09, 2014 11:43 PM

The last section should be an octave higher:

|----------------------------19b21-19b21-19b21-19b21-19b21-19b21-19b21-19b21-19b21-----17-|
|-----------------------------------------------------------------------------------19----|
|------9-------------9--------------------------------------------------------------------|
|-9h11---11-----9h11----------------------------------------------------------------------|
|----------------------9------------------------------------------------------------------|
|-----------------------------------------------------------------------------------------|

guest
You may want to rate the tab now too:
select rating
Wanna post a correction for this tab? Suggest correction