Oops, an error
Loading. Please wait.

The Past Recedes Bass Tab

version 1
version 1

Whole song

  • The Past Recedes, Sacada de el audio original.

Interactive

19 views 9 this week
no commentswrite comment
1 2 3 4 5
3 more votes to show rating
add to favorites
launch autoscroll
font size
0
reset
guitar tuner
Autoscroll
slow
fast
+/-
esc
set tempo
stop
Help us to improve Ultimate-Guitar.com Take our survey!
×
Author
Difficulty
intermediate
About this tab version
The Past Recedes, Sacada de el audio original. Was this info helpful? Yes No
The Past Recedes

Album: Curtains Fecha: 2005

Artista: John Fruciante
Creada por: Jesus Prudenciano 

Contacto o sugerencias: jesusprudenciano@hotmail.com


[Intro]

G|--------------------------|
D|--5-5-5-------7-7-7-------|
A|--------5-5-5-------7-7-7-|  x4
E|--------------------------|

       G    D     A     E   

G|--------------------------|
D|--5-5-5-------7-7-7-------|
A|--------5-5-5-------7-7-7-|  x2
E|--------------------------|

       G    D     A     E   


G|--------------------------|
D|--5-5-5-------7-----------|
A|--------5-5-5-------------|  
E|--------------------------|

       G    D     A        

 
G|--------------------------|
D|--5-5-5-------7-7-7-------|
A|--------5-5-5-------7-7-7-|  x3
E|--------------------------|

       G    D     A     E   

[Precoro]

G|------------------------------------------------|
D|--5-5-5-------7-7-7-7-7-------------------------|
A|--------5-5-5-----------2-2-2-2-2-2-2-2-2-2-2-2-| 
E|------------------------------------------------|
      G    D     A                 B

[Coro]


G|------------------------------------------|
D|----------------4------------------7------|
A|---3-3--5-6-6-6---6-7-7-7--7-5-5-5--5/3---|  x2  
E|-------------------------7----------------|
       C          D#      E      D 


G|---------------------------------------------------------|
D|---------------------------------------------------------|
A|---3-3-3-5-3/2-2-2-3-2-0-0-0-0--2-2-2-2-2-2-2-2-2-2-2-2--|  
E|---------------------------------------------------------|
          C      B          A               B


[Intro]

G|--------------------------|
D|--5-5-5-------7-7-7-------|
A|--------5-5-5-------7-7-7-|  x3
E|--------------------------|

       G    D     A     E   

[Precoro]

G|------------------------------------------------|
D|--5-5-5-------7-7-7-7-7-------------------------|
A|--------5-5-5-----------2-2-2-2-2-2-2-2-2-2-2-2-| 
E|------------------------------------------------|
      G    D     A                 B


[Coro]

G|------------------------------------------|
D|----------------4------------------7------|
A|---3-3--5-6-6-6---6-7-7-7--7-5-5-5--5/3---|  x2  
E|-------------------------7----------------|
       C          D#      E      D 


G|---------------------------------------------------------|
D|---------------------------------------------------------|
A|---3-3-3-5-3/2-2-2-3-2-0-0-0-0--2-2-2-2-2-2-2-2-2-2-2-2--|  
E|---------------------------------------------------------|
          C      B          A               B


[Solo]

G|--------------------------|
D|--5-5-5-------7-7-7-------|
A|--------5-5-5-------7-7-7-|  x3
E|--------------------------|

       G    D     A     E   


G|------------------------------------------------|
D|--5-5-5-------7-7-7-7-7-------------------------|
A|--------5-5-5-----------2-2-2-2-2-2-2-2-2-2-2-2-| 
E|------------------------------------------------|
      G    D     A                 B


[Coro]

G|------------------------------------------|
D|----------------4------------------7------|
A|---3-3--5-6-6-6---6-7-7-7--7-5-5-5--5/3---|  x2  
E|-------------------------7----------------|
       C          D#      E      D 


G|------------------------------------------------------------------------------------|
D|------------------------------------------------------------------------------------|
A|---3-3-3-5-3/2-2-2-3-2-0-0-0-0-0-0-0-0-3-3-3-5-3/2-2-2-3-2-2-2-2-2-2-2-2-2-2-2-2-2--|  
E|------------------------------------------------------------------------------------|
          C      B              A           C      B                B      

[Final]

G|--------------------------|
D|--5-5-5-------7-7-7-------|
A|--------5-5-5-------7-7-7-|  x3
E|--------------------------|

       G    D     A     E   


G|------------------------------------------------------|
D|--5-5-5-------7-7-7-7-7-------------------------5~~~~-|
A|--------5-5-5-----------2-2-2-2-2-2-2-2-2-2-2-2-------| 
E|------------------------------------------------------|
      G    D     A                 B              G


            MUCHAS GRACIAS  Y ¡COMPARTIR!
                 ¡Guerrero, Mexico!



************************************

| /  Slide up
| ~  Vibrato

************************************
Suggest correction
Give kudos to tab author, rate the tab!
1 2 3 4 5
comments
print report bad tab
guest
You may want to rate the tab now too:
select rating
Wanna post a correction for this tab? Suggest correction