Oops, an error
Loading. Please wait.

The Sides Bass

644 views 1 this week
no commentswrite comment
1 2 3 4 5
3 more votes to show rating
add to favorites
launch autoscroll
font size
0
reset
guitar tuner
×
Best way to learn
"The Sides"
Autoscroll
slow
fast
+/-
esc
set tempo
stop
Author
Difficulty
novice
repeat through whole song
|-----------------------------------0------------------|
|-----------------0-3-3-3-3-3-3-3-3---0----------------|
|-1-1-1-1-1-1-1-1--------------------------------------|
|------------------------------------------------------|

or like this of course

|------------------------------------------------------|
|-----------------------------------5------------------|
|-----------------5-8-8-8-8-8-8-8-8---5----------------|
|-6-6-6-6-6-6-6-6--------------------------------------|

dont know if its on here already or not but im puttin it on
thnx TRISTAN
Suggest correction
Give kudos to tab author, rate the tab!
1 2 3 4 5
comments
print report bad tab
guest
You may want to rate the tab now too:
select rating
Wanna post a correction for this tab? Suggest correction