Oops, an error
Loading. Please wait.
We have an official The Will To Death tab made by UG professional guitarists. Check out the tab »
×
13,451 views 21 this week
5 commentsread comments
1 2 3 4 5
x 8
add to favorites
launch autoscroll
font size
0
reset
how to read this tab
guitar tuner
backing track
0:00
0:00
Autoscroll
slow
fast
+/-
esc
set tempo
stop
Author
Difficulty
novice
-------------------------------------------------------------------------------
THE WILL TO DEATH (SOLO) - John Frusciante
-------------------------------------------------------------------------------

Tuning: EADGBe

Its a bit scratchy in a few places, so if you have any corrections please post them up!

e|------------------------|------------------------------------------|
B|--12--------------------|-12---------------------------------------|
G|-------14-13------11-13-|-----14-13-----11/13-11------------11-----|
D|-------------14---------|-----------14-----------14---14p11--------|
A|------------------------|------------------------------------------|
E|------------------------|------------------------------------------|

e|------------------------|------------------------------------------|
B|--12--------------------|-12---------------------------------------|
G|-------14-13------11-13-|-----14-13-----11/13-11------------11-13--|
D|-------------14---------|-----------14-----------14---14p11--------|
A|------------------------|------------------------------------------|
E|------------------------|------------------------------------------|

e|-------------------|-------------------|---------------------------|
B|--12--14--12-------|-12--14--12--------|-12--14--12----------------|
G|-------------14-13-|-------------14-13-|------------14/13----------|
D|-------------------|-------------------|------------------14-------|
A|-------------------|-------------------|---------------------------|
E|-------------------|-------------------|---------------------------|

e|-------------------|------------------------------------|
B|--12--14--12-------|-12--14--12-------------------------|
G|-------------14-13-|-------------14/13-----------11-----|
D|-------------------|-------------------14--14p11--------|
A|-------------------|------------------------------------|
E|-------------------|------------------------------------|

| / slide up
| p pull-off
===============================================================================
Suggest correction
comments
print report bad tab
5 comments total. Showing first comments.
0 reply
lbsurfer8550 30 Apr 11, 2009 11:21 AM

e|------------------|
B|--12-14-12--------|
G|-----------14-13--|
D|------------------|
A|------------------|
E|------------------|

+1 reply
lbsurfer8550 30 Apr 11, 2009 11:31 AM

e|-------------------|-----------|
B|-------------------|-----------|
G|--13-14-13---11----|--11------|
D|----------------14-|----14----|
A|-------------------|----------|
E|-------------------|----------|
x2 3rd (end)

also after that ^^

0 reply
leakeg 56 Apr 24, 2009 09:09 AM

oooh yeah I've munged up writing it down, got everything from the third line down one string too high... whoops better fix that

guest
You may want to rate the tab now too:
select rating
Wanna post a correction for this tab? Suggest correction