Oops, an error
Loading. Please wait.

This Cold Bass Tab

version 2
version 2

Whole song

Interactive

4,568 views 9 this week
no commentswrite comment
1 2 3 4 5
please rate
add to favorites
launch autoscroll
font size
0
reset
guitar tuner
Autoscroll
slow
fast
+/-
esc
set tempo
stop
Help us to improve Ultimate-Guitar.com Take our survey!
×
This is a very hard song to get right, coz most of the riffs are different... im not too 
at expresseing timimg, but the tabs are 100% correct... Good Luck!!!


INTRO
play this when the solo bit starts

G----------------------------------|
D----------------------------------|
A-0--0----------------3--3---------|     repeat twice
E---------1---1---------------3--3-|


Verse 1

G--------------------------|
D--------------------------|
A-0--0---------3--3--------|
E-------1--1---------3--3--|


G----------------------------------------|
D----------------------------------------|
A-0--0--------3--3-----------------------|
E-------1--1--------3-3-3-3--------------|


G--7--7--7-------------------------5--5--5-----------|
D----------------------------------------------------|
A----------------------------------------------------|
E----------------5---5------------------------3---3--|
   If you feel a fader       on a decline
   Im with all you'v ever been  you wont need time you never need time


Verse 2
G--------------------------------------|
D--------------------------------------|
A-0--0--------3--3---------------------|
E-------1--1--------3--3---------------|


the hard bit

G------------------5--7-----9--12---9-----|
D--------------------------------------10-|
A-0-0----------3--------------------------|
E------1--1-------------------------------|


repeat this riff until the start of the third verse
G----5-7-7-7-7-----------5--7---9--12--9--------|
D-----------------------------------------9-----|
A--5-----------------3--------------------------|
E-------------5--5-------------------------3--3-|


third verse
G----------------------------------|
D----------------------------------|
A-0--0--------3--3-----------------|
E-------1--1---------3--3----------|


G------------------5--7-----9--12---9-----|
D--------------------------------------10-|
A-0-0----------3--------------------------|
E------1--1-------------------------------|


G----5-7-7-7-7-----------5--7---9--12--9--------|
D-----------------------------------------9-----|
A--5-----------------3--------------------------|
E-------------5--5-------------------------3--3-|


G----5-7-7-7-7---------------|
D----------------------------|
A--5-----------------3-------|
E-------------5--5------3--3-|


I feel...
G--------------------------------------------|
D----------------------7---------------------|
A-------------------3-----5-3----------------|
E-1-1-1--3-3-3--5-5------------3--5----------|


G-------------------------17--16--14--16--14-|
D--------------------------------------------|
A--------------------------------------------|
E-1-1-1--3-3-3--5-5-5------------------------|


G------------------------9-12-9----9-------------|
D-------------------------------10---10--9--7----|
A------------------------------------------------|
E-1-1-1--3-3-3--5-5-5----------------------------|


G------------------------------------|
D------------------------------------|
A------------------------------------|
E-1-1-1--3-3-3--5--------------------|

Outro

G---------------------------------------------|
D---------------------------------------------|
A---------------------------------------------|
E-1-1-1--3-3-3--5-5-5-5-5-5-------------------|


C----------------------5--4--2--4--2------|
D-----------------------------------------|
A-----------------------------------------|
E-1-1-1-3-3-3--5-5-5----------------------|


C-------------------9----9----9----9-------------|
D----------------10---10---10---10---10--9-------|
A------------------------------------------------|
E-1-1-1--3-3-------------------------------------|


C--------------------|
D--------------------|
A--------------------|
E-1-1-1--3-3-3--5----|
Suggest correction
Give kudos to tab author, rate the tab!
1 2 3 4 5
comments
print report bad tab
guest
You may want to rate the tab now too:
select rating
Wanna post a correction for this tab? Suggest correction