Oops, an error
Loading. Please wait.

This Cold Tab

version 2
version 2

Whole song

Interactive

1,413 views 1 this week
1 commentread comment
1 2 3 4 5
accurate
x 3
add to favorites
launch autoscroll
font size
0
reset
how to read this tab
guitar tuner
Tab Pro tools
  • play this tab
  • loop segment
  • change instrument
  • show fretboard
  • metronome
×
Best way to learn
"This Cold"
Autoscroll
slow
fast
+/-
esc
set tempo
stop
Contributor
Artist: John Frusciante
Album: Shadows Collide With People
Song: This Cold

In this song I haven't pointed out exactly where to switch chord, but it really isn't 
that hard. Just make sure to also switch the pace and rhythm from verse to chorus and vice verca.

Tabbed by Aske Saxe, Denmark
Frodo_baggins15@hotmail.com

Tuning: standard
Chords used
C       x32010
F       x33210
G       x5543x
Am      x02210
Dm      xx0231

Intro riff
E--------------12--15--10--8-10-12---------------------------------|
B-10--12-13------------------------10--12-13-----------------------|
G-----------10-------------------------------10---9----------------|
D----------------------------------------------------10------------|
A------------------------------------------------------------------|
E------------------------------------------------------------------|

Solo after 1:35
E------------------------------------------------------------------|
B-10--8--10------10--8--10-----10--8--10---------------------------|
G------------9-------------9-------------9--10--12-10-9----9-------|
D-------------------------------------------------------10---9h10--|
A------------------------------------------------------------------|
E------------------------------------------------------------------|

Verse
Am - F - C - G
I don't need a ride to arrive
I don't feel approached any time

Chorus
Dm - Am -C - G
If you feel a fader on a decline
Out of all you've ever been
And you won't need time
You never need time

Verse
Am - F - C - G
I don't need every God
You see every ghost am I

Chorus
Dm - Am -C - G
Have we found a phase to be out of
Transfer all your thoughts to me
And you won't need love
We don't need love

Verse
Am - F - C - G
I don't need this sin to go
Down to where all forevers flow

Chorus
Dm - Am -C - G
Every fate released is revealed slow
Never talking back to me
Say it out loud

Outro
F - G - Am -Am
I feel this cold
I never stay and I never go
comments
We did not receive enough feedback on this tab! Please rate:
print report bad tab
1 2 3 4 5
1 comment total.
0 reply
HurricaneSG wrote on May 20 2006, 07:35 am

intro:
|-------------------12-15-12-------12---|----------------------|
|-10----12-13----------------12h13---13-|-10----12-13----------|
|-------------10------------------------|-------------10---9---|
|---------------------------------------|-------------------10/|
|---------------------------------------|----------------------|
|---------------------------------------|----------------------|

I want to post or [tab]
guest
You may want to rate the tab now too:
select rating
Please do not post tabs as comments. Select "correction" instead!