Oops, an error
Loading. Please wait.

This Cold Tab

version 3
version 3

Whole song

Interactive

3,277 views 9 this week
1 commentread comment
1 2 3 4 5
2 more votes to show rating
add to favorites
launch autoscroll
font size
0
reset
how to read this tab
guitar tuner
Autoscroll
slow
fast
+/-
esc
set tempo
stop
Help us to improve Ultimate-Guitar.com Take our survey!
×
Author
Difficulty
novice
This Cold
John Frusciante
Shadows Collide With People
Standard Tuning (Eadgbe)
Tabbed by mike

well the otha guy that tabbed this is correct but he left out a few lil notes and made 
the chords in hard progresssion.
also john prefers to use his thumb over instead of barring hence the muted notes on the 
chords due to the bass playin it.

Intro

  Am | F | C | G       x2
E|-0---1---x---3-|
B|-1---1---5---3-|
G|-2---2---5---4-|
D|-2---3---5---5-|
A|-0---3---3---5-|
E|-0---x---x---x-|

Listen to the timing for this

E|---------------------15----------------12----|--------------------------|
B|-----12-13----15b17-----17rb15--12h13-----13-|-----12-13----------------|
G|--14-----------------------------------------|--14----------------------|
D|-----------15--------------------------------|-----------15---14---10/--|
A|---------------------------------------------|--------------------------|
E|---------------------------------------------|--------------------------|

First Verse

 Am | F | C | G       x2

I don't need a ride to arrive
I don't feel approached any time

Interlude

   Dm | Am | C | G    x2
E|-x----5----x---3-|
B|-6----5----5---3-|
G|-7----5----5---4-|
D|-7----7----5---5-|
A|-5----7----3---5-|
E|-x----5----x---x-|

If you feel a fader on a decline
Out of all you've ever been
And you won't need time
You never need time

Second Verse

 Am | F | C | G       x2

I don't need this every God
You see every ghost am I


Interlude

 Dm | Am | C | G      x2

Have we found a phase to be out of
Transfer all your thoughts to me
And you won't need love
We don't need love


Third Verse

 Am | F | C | G       x2

I don't need this sin to go
Down to where all forevers flow


Interlude

 Dm | Am | C | G      x2

Every fate released is revealed slow
Never talking back to me
Say it out loud
Say it out loud


Coda

   F | G | Am         x8
E|-1---3---5-|
B|-1---3---5-|
G|-2---4---5-|
D|-3---5---7-|
A|-3---5---7-|
E|-1---3---5-|

I feel this cold
I never stay and I never go
I feel this cold
I never stay and I never go


Outro

Also listen for the timing here as it differs

E|--------------------------------------------------------------|
B|--10-8-10------10-8-10-----10-8-10-------10-------------------|
G|----------9------------9-----------9--9b11rb9----9------------|
D|----------------------------------------------10---10-9b10----|
A|--------------------------------------------------------------|
E|--------------------------------------------------------------|


Hope u like it coz its an awsum song :)

Hayzo
Suggest correction
Give kudos to tab author, rate the tab!
1 2 3 4 5
comments
print report bad tab
1 comment total.
0 reply
givicencio 340 Apr 29, 2015 01:09 AM

I think that in this part of your outro:

B -----10------
G --9b11rb9--

Should be actually this:

B -----8------
G --9b11rb9--

guest
You may want to rate the tab now too:
select rating
Wanna post a correction for this tab? Suggest correction